  0
SECTION
  2
HEADER
  9
$ACADVER
  1
AC1015
  9
$ACADMAINTVER
 70
    13
  9
$DWGCODEPAGE
  3
ANSI_1252
  9
$INSBASE
 10
0.0
 20
0.0
 30
0.0
  9
$EXTMIN
 10
10.5043945714184
 20
4.624176860575428
 30
-0.0015258207003583
  9
$EXTMAX
 10
14.70117190608425
 20
12.00202032585337
 30
0.0000000349246037
  9
$LIMMIN
 10
0.0
 20
0.0
  9
$LIMMAX
 10
12.0
 20
9.0
  9
$ORTHOMODE
 70
     0
  9
$REGENMODE
 70
     1
  9
$FILLMODE
 70
     1
  9
$QTEXTMODE
 70
     0
  9
$MIRRTEXT
 70
     1
  9
$LTSCALE
 40
1.0
  9
$ATTMODE
 70
     1
  9
$TEXTSIZE
 40
0.2
  9
$TRACEWID
 40
0.05
  9
$TEXTSTYLE
  7
STANDARD
  9
$CLAYER
  8
PROFILE
  9
$CELTYPE
  6
BYLAYER
  9
$CECOLOR
 62
   256
  9
$CELTSCALE
 40
1.0
  9
$DISPSILH
 70
     0
  9
$DIMSCALE
 40
1.0
  9
$DIMASZ
 40
0.18
  9
$DIMEXO
 40
0.0625
  9
$DIMDLI
 40
0.38
  9
$DIMRND
 40
0.0
  9
$DIMDLE
 40
0.0
  9
$DIMEXE
 40
0.18
  9
$DIMTP
 40
0.0
  9
$DIMTM
 40
0.0
  9
$DIMTXT
 40
0.18
  9
$DIMCEN
 40
0.09
  9
$DIMTSZ
 40
0.0
  9
$DIMTOL
 70
     0
  9
$DIMLIM
 70
     0
  9
$DIMTIH
 70
     1
  9
$DIMTOH
 70
     1
  9
$DIMSE1
 70
     0
  9
$DIMSE2
 70
     0
  9
$DIMTAD
 70
     0
  9
$DIMZIN
 70
     0
  9
$DIMBLK
  1

  9
$DIMASO
 70
     1
  9
$DIMSHO
 70
     1
  9
$DIMPOST
  1

  9
$DIMAPOST
  1

  9
$DIMALT
 70
     0
  9
$DIMALTD
 70
     2
  9
$DIMALTF
 40
25.4
  9
$DIMLFAC
 40
1.0
  9
$DIMTOFL
 70
     0
  9
$DIMTVP
 40
0.0
  9
$DIMTIX
 70
     0
  9
$DIMSOXD
 70
     0
  9
$DIMSAH
 70
     0
  9
$DIMBLK1
  1

  9
$DIMBLK2
  1

  9
$DIMSTYLE
  2
STANDARD_WS
  9
$DIMCLRD
 70
     0
  9
$DIMCLRE
 70
     0
  9
$DIMCLRT
 70
     0
  9
$DIMTFAC
 40
1.0
  9
$DIMGAP
 40
0.09
  9
$DIMJUST
 70
     0
  9
$DIMSD1
 70
     0
  9
$DIMSD2
 70
     0
  9
$DIMTOLJ
 70
     1
  9
$DIMTZIN
 70
     0
  9
$DIMALTZ
 70
     0
  9
$DIMALTTZ
 70
     0
  9
$DIMUPT
 70
     0
  9
$DIMDEC
 70
     4
  9
$DIMTDEC
 70
     4
  9
$DIMALTU
 70
     2
  9
$DIMALTTD
 70
     2
  9
$DIMTXSTY
  7
STANDARD
  9
$DIMAUNIT
 70
     0
  9
$DIMADEC
 70
     3
  9
$DIMALTRND
 40
0.0
  9
$DIMAZIN
 70
     0
  9
$DIMDSEP
 70
    46
  9
$DIMATFIT
 70
     3
  9
$DIMFRAC
 70
     0
  9
$DIMLDRBLK
  1

  9
$DIMLUNIT
 70
     2
  9
$DIMLWD
 70
    -2
  9
$DIMLWE
 70
    -2
  9
$DIMTMOVE
 70
     0
  9
$LUNITS
 70
     2
  9
$LUPREC
 70
     4
  9
$SKETCHINC
 40
0.1
  9
$FILLETRAD
 40
0.0
  9
$AUNITS
 70
     0
  9
$AUPREC
 70
     4
  9
$MENU
  1
.
  9
$ELEVATION
 40
0.0
  9
$PELEVATION
 40
0.0
  9
$THICKNESS
 40
0.0
  9
$LIMCHECK
 70
     0
  9
$CHAMFERA
 40
0.5
  9
$CHAMFERB
 40
0.5
  9
$CHAMFERC
 40
1.0
  9
$CHAMFERD
 40
0.0
  9
$SKPOLY
 70
     1
  9
$TDCREATE
 40
2451257.516379630
  9
$TDUCREATE
 40
2451257.724712962
  9
$TDUPDATE
 40
2454950.383107731
  9
$TDUUPDATE
 40
2454950.591441064
  9
$TDINDWG
 40
5.0514703704
  9
$TDUSRTIMER
 40
5.0514703704
  9
$USRTIMER
 70
     1
  9
$ANGBASE
 50
0.0
  9
$ANGDIR
 70
     0
  9
$PDMODE
 70
     0
  9
$PDSIZE
 40
0.0
  9
$PLINEWID
 40
0.0
  9
$SPLFRAME
 70
     0
  9
$SPLINETYPE
 70
     6
  9
$SPLINESEGS
 70
     8
  9
$HANDSEED
  5
ADA
  9
$SURFTAB1
 70
     6
  9
$SURFTAB2
 70
     6
  9
$SURFTYPE
 70
     6
  9
$SURFU
 70
     6
  9
$SURFV
 70
     6
  9
$UCSBASE
  2

  9
$UCSNAME
  2

  9
$UCSORG
 10
0.0
 20
0.0
 30
0.0
  9
$UCSXDIR
 10
1.0
 20
0.0
 30
0.0
  9
$UCSYDIR
 10
0.0
 20
1.0
 30
0.0
  9
$UCSORTHOREF
  2

  9
$UCSORTHOVIEW
 70
     0
  9
$UCSORGTOP
 10
0.0
 20
0.0
 30
0.0
  9
$UCSORGBOTTOM
 10
0.0
 20
0.0
 30
0.0
  9
$UCSORGLEFT
 10
0.0
 20
0.0
 30
0.0
  9
$UCSORGRIGHT
 10
0.0
 20
0.0
 30
0.0
  9
$UCSORGFRONT
 10
0.0
 20
0.0
 30
0.0
  9
$UCSORGBACK
 10
0.0
 20
0.0
 30
0.0
  9
$PUCSBASE
  2

  9
$PUCSNAME
  2

  9
$PUCSORG
 10
0.0
 20
0.0
 30
0.0
  9
$PUCSXDIR
 10
1.0
 20
0.0
 30
0.0
  9
$PUCSYDIR
 10
0.0
 20
1.0
 30
0.0
  9
$PUCSORTHOREF
  2

  9
$PUCSORTHOVIEW
 70
     0
  9
$PUCSORGTOP
 10
0.0
 20
0.0
 30
0.0
  9
$PUCSORGBOTTOM
 10
0.0
 20
0.0
 30
0.0
  9
$PUCSORGLEFT
 10
0.0
 20
0.0
 30
0.0
  9
$PUCSORGRIGHT
 10
0.0
 20
0.0
 30
0.0
  9
$PUCSORGFRONT
 10
0.0
 20
0.0
 30
0.0
  9
$PUCSORGBACK
 10
0.0
 20
0.0
 30
0.0
  9
$USERI1
 70
     0
  9
$USERI2
 70
     0
  9
$USERI3
 70
     0
  9
$USERI4
 70
     0
  9
$USERI5
 70
     0
  9
$USERR1
 40
0.0
  9
$USERR2
 40
0.0
  9
$USERR3
 40
0.0
  9
$USERR4
 40
0.0
  9
$USERR5
 40
0.0
  9
$WORLDVIEW
 70
     1
  9
$SHADEDGE
 70
     3
  9
$SHADEDIF
 70
    70
  9
$TILEMODE
 70
     1
  9
$MAXACTVP
 70
    48
  9
$PINSBASE
 10
0.0
 20
0.0
 30
0.0
  9
$PLIMCHECK
 70
     0
  9
$PEXTMIN
 10
1.000000000000000E+20
 20
1.000000000000000E+20
 30
1.000000000000000E+20
  9
$PEXTMAX
 10
-1.000000000000000E+20
 20
-1.000000000000000E+20
 30
-1.000000000000000E+20
  9
$PLIMMIN
 10
0.0
 20
0.0
  9
$PLIMMAX
 10
12.0
 20
9.0
  9
$UNITMODE
 70
     0
  9
$VISRETAIN
 70
     0
  9
$PLINEGEN
 70
     0
  9
$PSLTSCALE
 70
     1
  9
$TREEDEPTH
 70
  3020
  9
$CMLSTYLE
  2
STANDARD
  9
$CMLJUST
 70
     0
  9
$CMLSCALE
 40
1.0
  9
$PROXYGRAPHICS
 70
     1
  9
$MEASUREMENT
 70
     0
  9
$CELWEIGHT
370
    -1
  9
$ENDCAPS
280
     0
  9
$JOINSTYLE
280
     0
  9
$LWDISPLAY
290
     0
  9
$INSUNITS
 70
     0
  9
$HYPERLINKBASE
  1

  9
$STYLESHEET
  1
monochrome.ctb
  9
$XEDIT
290
     1
  9
$CEPSNTYPE
380
     0
  9
$PSTYLEMODE
290
     1
  9
$FINGERPRINTGUID
  2
{89108230-6C88-44B9-880F-278BAA3B4DED}
  9
$VERSIONGUID
  2
{D772C0B8-DCC0-4F8E-8AD0-585EE474B6F0}
  9
$EXTNAMES
290
     1
  9
$PSVPSCALE
 40
0.0
  9
$OLESTARTUP
290
     0
  0
ENDSEC
  0
SECTION
  2
CLASSES
  0
CLASS
  1
DICTIONARYVAR
  2
AcDbDictionaryVar
  3
AutoCAD 2000
 90
        0
280
     0
281
     0
  0
CLASS
  1
ACDBDICTIONARYWDFLT
  2
AcDbDictionaryWithDefault
  3
AutoCAD 2000
 90
        0
280
     0
281
     0
  0
CLASS
  1
ACDBPLACEHOLDER
  2
AcDbPlaceHolder
  3
AutoCAD 2000
 90
        0
280
     0
281
     0
  0
CLASS
  1
LAYOUT
  2
AcDbLayout
  3
AutoCAD 2000
 90
        0
280
     0
281
     0
  0
CLASS
  1
RASTERVARIABLES
  2
AcDbRasterVariables
  3
ISM
 90
        0
280
     0
281
     0
  0
CLASS
  1
IMAGEDEF
  2
AcDbRasterImageDef
  3
ISM
 90
        0
280
     0
281
     0
  0
CLASS
  1
IMAGEDEF_REACTOR
  2
AcDbRasterImageDefReactor
  3
ISM
 90
    32769
280
     0
281
     0
  0
CLASS
  1
IMAGE
  2
AcDbRasterImage
  3
ISM
 90
    32895
280
     0
281
     1
  0
ENDSEC
  0
SECTION
  2
TABLES
  0
TABLE
  2
VPORT
  5
12
330
0
100
AcDbSymbolTable
 70
     4
  0
VPORT
  5
AD9
330
12
100
AcDbSymbolTableRecord
100
AcDbViewportTableRecord
  2
*Active
 70
     0
 10
0.0
 20
0.0
 11
1.0
 21
1.0
 12
11.86072476215172
 22
6.102846491571789
 13
0.0
 23
0.0
 14
0.5
 24
0.5
 15
0.5
 25
0.5
 16
0.0
 26
0.0
 36
1.0
 17
0.0
 27
0.0
 37
0.0
 40
3.335443550349985
 41
2.05015197568389
 42
50.0
 43
0.0
 44
0.0
 50
0.0
 51
0.0
 71
     0
 72
   100
 73
     1
 74
     1
 75
     0
 76
     0
 77
     0
 78
     0
281
     0
 65
     1
110
0.0
120
0.0
130
0.0
111
1.0
121
0.0
131
0.0
112
0.0
122
1.0
132
0.0
 79
     0
146
0.0
  0
ENDTAB
  0
TABLE
  2
LTYPE
  5
D
330
0
100
AcDbSymbolTable
 70
     1
  0
LTYPE
  5
E
330
D
100
AcDbSymbolTableRecord
100
AcDbLinetypeTableRecord
  2
BYBLOCK
 70
     0
  3

 72
    65
 73
     0
 40
0.0
  0
LTYPE
  5
F
330
D
100
AcDbSymbolTableRecord
100
AcDbLinetypeTableRecord
  2
BYLAYER
 70
     0
  3

 72
    65
 73
     0
 40
0.0
  0
LTYPE
  5
5
330
D
100
AcDbSymbolTableRecord
100
AcDbLinetypeTableRecord
  2
CONTINUOUS
 70
     0
  3
Solid line
 72
    65
 73
     0
 40
0.0
  0
ENDTAB
  0
TABLE
  2
LAYER
  5
A
330
0
100
AcDbSymbolTable
 70
     6
  0
LAYER
  5
4
330
A
100
AcDbSymbolTableRecord
100
AcDbLayerTableRecord
  2
0
 70
     0
 62
     7
  6
CONTINUOUS
370
    -3
390
16A
  0
LAYER
  5
1F
330
A
100
AcDbSymbolTableRecord
100
AcDbLayerTableRecord
  2
PROFILE
 70
     0
 62
     3
  6
CONTINUOUS
370
    -3
390
16A
  0
LAYER
  5
1B
330
A
100
AcDbSymbolTableRecord
100
AcDbLayerTableRecord
  2
DEFPOINTS
 70
     0
 62
     7
  6
CONTINUOUS
290
     0
370
    -3
390
16A
  0
LAYER
  5
27
330
A
100
AcDbSymbolTableRecord
100
AcDbLayerTableRecord
  2
TEXT
 70
     0
 62
     5
  6
CONTINUOUS
370
    -3
390
16A
  0
LAYER
  5
28
330
A
100
AcDbSymbolTableRecord
100
AcDbLayerTableRecord
  2
DIMENSION
 70
     0
 62
     1
  6
CONTINUOUS
370
    -3
390
16A
  0
LAYER
  5
750
330
A
100
AcDbSymbolTableRecord
100
AcDbLayerTableRecord
  2
ALL
 70
     0
 62
     7
  6
CONTINUOUS
370
    -3
390
16A
  0
ENDTAB
  0
TABLE
  2
STYLE
  5
B
330
0
100
AcDbSymbolTable
 70
     3
  0
STYLE
  5
C
330
B
100
AcDbSymbolTableRecord
100
AcDbTextStyleTableRecord
  2
STANDARD
 70
     0
 40
0.0
 41
1.0
 50
0.0
 71
     0
 42
0.2
  3
txt
  4

  0
STYLE
  5
751
330
B
100
AcDbSymbolTableRecord
100
AcDbTextStyleTableRecord
  2
PANROMAN
 70
     0
 40
0.25
 41
1.25
 50
10.0
 71
     0
 42
0.25
  3
par_____.pfb
  4

  0
STYLE
  5
752
330
B
100
AcDbSymbolTableRecord
100
AcDbTextStyleTableRecord
  2
TEST
 70
     0
 40
0.0
 41
1.0
 50
0.0
 71
     0
 42
0.25
  3
ROMANC.SHX
  4

  0
ENDTAB
  0
TABLE
  2
VIEW
  5
10
330
0
100
AcDbSymbolTable
 70
     0
  0
ENDTAB
  0
TABLE
  2
UCS
  5
11
330
0
100
AcDbSymbolTable
 70
     0
  0
ENDTAB
  0
TABLE
  2
APPID
  5
14
330
0
100
AcDbSymbolTable
 70
     2
  0
APPID
  5
15
330
14
100
AcDbSymbolTableRecord
100
AcDbRegAppTableRecord
  2
ACAD
 70
     0
  0
APPID
  5
171
330
14
100
AcDbSymbolTableRecord
100
AcDbRegAppTableRecord
  2
NCPOLARIS_BASE
 70
     0
  0
ENDTAB
  0
TABLE
  2
DIMSTYLE
  5
16
330
0
100
AcDbSymbolTable
 70
     2
100
AcDbDimStyleTable
 71
     1
340
1D
  0
DIMSTYLE
105
1D
330
16
100
AcDbSymbolTableRecord
100
AcDbDimStyleTableRecord
  2
STANDARD_WS
 70
     0
179
     3
340
C
  0
DIMSTYLE
105
39
330
16
100
AcDbSymbolTableRecord
100
AcDbDimStyleTableRecord
  2
STANDARD
 70
     0
340
C
  0
ENDTAB
  0
TABLE
  2
BLOCK_RECORD
  5
1
330
0
100
AcDbSymbolTable
 70
     5
  0
BLOCK_RECORD
  5
2
330
1
100
AcDbSymbolTableRecord
100
AcDbBlockTableRecord
  2
*MODEL_SPACE
340
16D
  0
BLOCK_RECORD
  5
7
330
1
100
AcDbSymbolTableRecord
100
AcDbBlockTableRecord
  2
*PAPER_SPACE
340
16E
  0
BLOCK_RECORD
  5
3A
330
1
100
AcDbSymbolTableRecord
100
AcDbBlockTableRecord
  2
F
340
0
  0
BLOCK_RECORD
  5
8E
330
1
100
AcDbSymbolTableRecord
100
AcDbBlockTableRecord
  2
D
340
0
  0
BLOCK_RECORD
  5
AC
330
1
100
AcDbSymbolTableRecord
100
AcDbBlockTableRecord
  2
CCCROWN
340
0
  0
BLOCK_RECORD
  5
5B6
330
1
100
AcDbSymbolTableRecord
100
AcDbBlockTableRecord
  2
track
340
0
  0
ENDTAB
  0
ENDSEC
  0
SECTION
  2
BLOCKS
  0
BLOCK
  5
3
330
2
100
AcDbEntity
  8
0
100
AcDbBlockBegin
  2
*MODEL_SPACE
 70
     0
 10
0.0
 20
0.0
 30
0.0
  3
*MODEL_SPACE
  1

  0
ENDBLK
  5
6
330
2
100
AcDbEntity
  8
0
100
AcDbBlockEnd
  0
BLOCK
  5
8
330
7
100
AcDbEntity
 67
     1
  8
0
100
AcDbBlockBegin
  2
*PAPER_SPACE
 70
     0
 10
0.0
 20
0.0
 30
0.0
  3
*PAPER_SPACE
  1

  0
ENDBLK
  5
9
330
7
100
AcDbEntity
 67
     1
  8
0
100
AcDbBlockEnd
  0
BLOCK
  5
46
330
3A
100
AcDbEntity
  8
0
100
AcDbBlockBegin
  2
F
 70
     0
 10
0.0
 20
0.0
 30
0.0
  3
F
  1

  0
CIRCLE
  5
3B
330
3A
100
AcDbEntity
  8
0
 62
     7
100
AcDbCircle
 10
0.0410665214247617
 20
-0.016701615976765
 30
0.0
 40
0.0183435
  0
CIRCLE
  5
3C
330
3A
100
AcDbEntity
  8
0
 62
     7
100
AcDbCircle
 10
0.0068044214247617
 20
-0.000720415976765
 30
0.0
 40
0.0194689
  0
CIRCLE
  5
3D
330
3A
100
AcDbEntity
  8
0
 62
     7
100
AcDbCircle
 10
0.0369728214247617
 20
-0.013878215976765
 30
0.0
 40
0.0139466
  0
CIRCLE
  5
3E
330
3A
100
AcDbEntity
  8
0
 62
     7
100
AcDbCircle
 10
0.1138706214247617
 20
0.0152964840232351
 30
0.0
 40
0.0058588
  0
LINE
  5
3F
330
3A
100
AcDbEntity
  8
0
 62
     7
100
AcDbLine
 10
0.1550692214247617
 20
-0.023509915976765
 30
0.0
 11
0.1179283214247617
 21
-0.024196615976765
 31
0.0
  0
LINE
  5
40
330
3A
100
AcDbEntity
  8
0
 62
     7
100
AcDbLine
 10
0.0092153214247617
 20
-0.029690015976765
 30
0.0
 11
0.0457186214247617
 21
-0.028454015976765
 31
0.0
  0
LINE
  5
41
330
3A
100
AcDbEntity
  8
0
 62
     7
100
AcDbLine
 10
0.0088965214247617
 20
-0.020076515976765
 30
0.0
 11
0.0092153214247617
 21
-0.029690015976765
 31
0.0
  0
LINE
  5
42
330
3A
100
AcDbEntity
  8
0
 62
     7
100
AcDbLine
 10
0.0353574214247617
 20
-0.000025415976765
 30
0.0
 11
0.0355168214247617
 21
0.009313484023235
 31
0.0
  0
LINE
  5
43
330
3A
100
AcDbEntity
  8
0
 62
     7
100
AcDbLine
 10
0.1196817214247617
 20
0.0160428840232351
 30
0.0
 11
0.1550692214247617
 21
0.0165922840232351
 31
0.0
  0
LINE
  5
44
330
3A
100
AcDbEntity
  8
0
 62
     7
100
AcDbLine
 10
0.1537940214247617
 20
-0.023235215976765
 30
0.0
 11
0.1526782214247617
 21
0.0172789840232351
 31
0.0
  0
LINE
  5
45
330
3A
100
AcDbEntity
  8
0
 62
     7
100
AcDbLine
 10
0.1142620214247617
 20
0.009450784023235
 30
0.0
 11
0.0363138214247617
 21
0.005193384023235
 31
0.0
  0
ENDBLK
  5
47
330
3A
100
AcDbEntity
  8
0
100
AcDbBlockEnd
  0
BLOCK
  5
9B
330
8E
100
AcDbEntity
  8
0
100
AcDbBlockBegin
  2
D
 70
     0
 10
0.0
 20
0.0
 30
0.0
  3
D
  1

  0
CIRCLE
  5
8F
330
8E
100
AcDbEntity
  8
0
 62
     7
100
AcDbCircle
 10
-0.1168512632442014
 20
0.0286128993414634
 30
0.0
 40
0.0184624
  0
CIRCLE
  5
90
330
8E
100
AcDbEntity
  8
0
 62
     7
100
AcDbCircle
 10
-0.1124979632442014
 20
0.0309464993414634
 30
0.0
 40
0.0254615
  0
CIRCLE
  5
91
330
8E
100
AcDbEntity
  8
0
 62
     7
100
AcDbCircle
 10
-0.1098053632442014
 20
0.0273971993414634
 30
0.0
 40
0.0219833
  0
LINE
  5
92
330
8E
100
AcDbEntity
  8
0
 62
     7
100
AcDbLine
 10
-0.1130932632442014
 20
0.0708659993414634
 30
0.0
 11
-0.1446799632442014
 21
0.0404778993414634
 31
0.0
  0
LINE
  5
93
330
8E
100
AcDbEntity
  8
0
 62
     7
100
AcDbLine
 10
-0.1297586632442014
 20
0.0418136993414634
 30
0.0
 11
-0.1400291632442014
 21
0.0504959993414634
 31
0.0
  0
LINE
  5
94
330
8E
100
AcDbEntity
  8
0
 62
     7
100
AcDbLine
 10
-0.1082487632442014
 20
0.0710328993414634
 30
0.0
 11
-0.0784060632442014
 21
0.0398100993414634
 31
0.0
  0
LINE
  5
95
330
8E
100
AcDbEntity
  8
0
 62
     7
100
AcDbLine
 10
-0.0920669632442015
 20
0.0403824993414634
 30
0.0
 11
-0.0844133632442015
 21
0.0478244993414634
 31
0.0
  0
LINE
  5
96
330
8E
100
AcDbEntity
  8
0
 62
     7
100
AcDbLine
 10
-0.0178829632442014
 20
0.0352731993414634
 30
0.0
 11
-0.0253094632442014
 21
0.0404778993414634
 31
0.0
  0
CIRCLE
  5
97
330
8E
100
AcDbEntity
  8
0
 62
     7
100
AcDbCircle
 10
-0.0019354632442014
 20
0.0279654993414634
 30
0.0
 40
0.0175421
  0
LINE
  5
98
330
8E
100
AcDbEntity
  8
0
 62
     7
100
AcDbLine
 10
-0.0253094632442014
 20
0.0404778993414634
 30
0.0
 11
-0.0074813632442014
 21
0.0643541993414634
 31
0.0
  0
LINE
  5
99
330
8E
100
AcDbEntity
  8
0
 62
     7
100
AcDbLine
 10
0.0161602367557986
 20
0.0461547993414634
 30
0.0
 11
-0.0074813632442014
 21
0.0643541993414634
 31
0.0
  0
LINE
  5
9A
330
8E
100
AcDbEntity
  8
0
 62
     7
100
AcDbLine
 10
0.0108860367557986
 20
0.0399377993414634
 30
0.0
 11
0.0161602367557986
 21
0.0461547993414634
 31
0.0
  0
ENDBLK
  5
9C
330
8E
100
AcDbEntity
  8
0
100
AcDbBlockEnd
  0
BLOCK
  5
BC
330
AC
100
AcDbEntity
  8
0
100
AcDbBlockBegin
  2
CCCROWN
 70
     0
 10
0.0
 20
0.0
 30
0.0
  3
CCCROWN
  1

  0
CIRCLE
  5
AD
330
AC
100
AcDbEntity
  8
0
 62
     7
100
AcDbCircle
 10
1.453151451829637
 20
0.6765280889605166
 30
0.0
 40
1.344812
  0
LINE
  5
AE
330
AC
100
AcDbEntity
  8
0
 62
     7
100
AcDbLine
 10
0.8618244518296375
 20
0.5174780889605167
 30
0.0
 11
0.8767584518296375
 21
-0.6765521110394835
 31
0.0
  0
LINE
  5
AF
330
AC
100
AcDbEntity
  8
0
 62
     7
100
AcDbLine
 10
0.2226365518296377
 20
0.5174780889605167
 30
0.0
 11
0.2226365518296377
 21
0.1609270889605165
 31
0.0
  0
CIRCLE
  5
B0
330
AC
100
AcDbEntity
  8
0
 62
     7
100
AcDbCircle
 10
0.0027955518296377
 20
-0.7486109110394834
 30
0.0
 40
0.6896503000000001
  0
CIRCLE
  5
B1
330
AC
100
AcDbEntity
  8
0
 62
     7
100
AcDbCircle
 10
0.4295939518296377
 20
0.0154420889605165
 30
0.0
 40
0.1281395
  0
LINE
  5
B2
330
AC
100
AcDbEntity
  8
0
 62
     7
100
AcDbLine
 10
0.2315971518296377
 20
0.1443430889605164
 30
0.0
 11
0.2584788518296377
 21
0.1388150889605166
 31
0.0
  0
LINE
  5
B3
330
AC
100
AcDbEntity
  8
0
 62
     7
100
AcDbLine
 10
0.2226365518296377
 20
0.1609270889605165
 30
0.0
 11
0.2315971518296377
 21
0.1443430889605164
 31
0.0
  0
LINE
  5
B4
330
AC
100
AcDbEntity
  8
0
 62
     7
100
AcDbLine
 10
0.2823736518296376
 20
0.1360510889605164
 30
0.0
 11
0.3480845518296377
 21
0.1305240889605166
 31
0.0
  0
LINE
  5
B5
330
AC
100
AcDbEntity
  8
0
 62
     7
100
AcDbLine
 10
0.2584788518296377
 20
0.1388150889605166
 30
0.0
 11
0.2823736518296376
 21
0.1360510889605164
 31
0.0
  0
LINE
  5
B6
330
AC
100
AcDbEntity
  8
0
 62
     7
100
AcDbLine
 10
0.3480845518296377
 20
0.1305240889605166
 30
0.0
 11
0.3510714518296377
 21
0.1167040889605164
 31
0.0
  0
LINE
  5
B7
330
AC
100
AcDbEntity
  8
0
 62
     7
100
AcDbLine
 10
0.8767584518296375
 20
-0.6765521110394835
 30
0.0
 11
0.7304024518296377
 21
-0.6793160110394835
 31
0.0
  0
LINE
  5
B8
330
AC
100
AcDbEntity
  8
0
 62
     7
100
AcDbLine
 10
0.6855994518296377
 20
-0.6572044110394835
 30
0.0
 11
0.6885863518296378
 21
-0.6378567110394835
 31
0.0
  0
LINE
  5
B9
330
AC
100
AcDbEntity
  8
0
 62
     7
100
AcDbLine
 10
0.7304024518296377
 20
-0.6793160110394835
 30
0.0
 11
0.7065074518296378
 21
-0.6737881110394835
 31
0.0
  0
LINE
  5
BA
330
AC
100
AcDbEntity
  8
0
 62
     7
100
AcDbLine
 10
0.7065074518296378
 20
-0.6737881110394835
 30
0.0
 11
0.6855994518296377
 21
-0.6572044110394835
 31
0.0
  0
LINE
  5
BB
330
AC
100
AcDbEntity
  8
0
 62
     7
100
AcDbLine
 10
0.2226365518296377
 20
0.5174780889605167
 30
0.0
 11
0.8618244518296375
 21
0.5174780889605167
 31
0.0
  0
ENDBLK
  5
BD
330
AC
100
AcDbEntity
  8
0
100
AcDbBlockEnd
  0
BLOCK
  5
5C3
330
5B6
100
AcDbEntity
  8
0
100
AcDbBlockBegin
  2
track
 70
     0
 10
0.0
 20
0.0
 30
0.0
  3
track
  1

  0
LINE
  5
5B7
330
5B6
100
AcDbEntity
  8
PROFILE
100
AcDbLine
 10
16.53207238374206
 20
4.044320932551642
 30
0.0
 11
16.53207238374207
 21
5.014320932551641
 31
0.0
  0
LINE
  5
5B8
330
5B6
100
AcDbEntity
  8
PROFILE
100
AcDbLine
 10
15.60207238374206
 20
4.044320932551642
 30
0.0
 11
15.60207238374206
 21
5.014320932551641
 31
0.0
  0
LINE
  5
5B9
330
5B6
100
AcDbEntity
  8
PROFILE
100
AcDbLine
 10
15.47707238374207
 20
3.919320932551641
 30
0.0
 11
15.47707238374206
 21
5.13932093255164
 31
0.0
  0
LINE
  5
5BA
330
5B6
100
AcDbEntity
  8
PROFILE
100
AcDbLine
 10
16.65707238374206
 20
3.919320932551642
 30
0.0
 11
16.65707238374206
 21
5.13932093255164
 31
0.0
  0
LINE
  5
5BB
330
5B6
100
AcDbEntity
  8
PROFILE
100
AcDbLine
 10
15.60207238374206
 20
4.044320932551642
 30
0.0
 11
15.81707238374206
 21
4.044320932551641
 31
0.0
  0
LINE
  5
5BC
330
5B6
100
AcDbEntity
  8
PROFILE
100
AcDbLine
 10
15.47707238374207
 20
3.919320932551641
 30
0.0
 11
15.81707238374206
 21
3.919320932551641
 31
0.0
  0
LINE
  5
5BD
330
5B6
100
AcDbEntity
  8
PROFILE
100
AcDbLine
 10
15.81707238374207
 20
3.919320932551642
 30
0.0
 11
15.81707238374206
 21
4.044320932551641
 31
0.0
  0
LINE
  5
5BE
330
5B6
100
AcDbEntity
  8
PROFILE
100
AcDbLine
 10
16.31707238374207
 20
3.919320932551641
 30
0.0
 11
16.65707238374206
 21
3.919320932551642
 31
0.0
  0
LINE
  5
5BF
330
5B6
100
AcDbEntity
  8
PROFILE
100
AcDbLine
 10
16.31707238374207
 20
3.919320932551642
 30
0.0
 11
16.31707238374206
 21
4.04432093255164
 31
0.0
  0
LINE
  5
5C0
330
5B6
100
AcDbEntity
  8
PROFILE
100
AcDbLine
 10
16.31707238374206
 20
4.04432093255164
 30
0.0
 11
16.53207238374206
 21
4.044320932551642
 31
0.0
  0
LINE
  5
5C1
330
5B6
100
AcDbEntity
  8
PROFILE
100
AcDbLine
 10
15.60207238374206
 20
5.014320932551641
 30
0.0
 11
16.53207238374207
 21
5.014320932551641
 31
0.0
  0
LINE
  5
5C2
330
5B6
100
AcDbEntity
  8
PROFILE
100
AcDbLine
 10
15.47707238374206
 20
5.13932093255164
 30
0.0
 11
16.65707238374206
 21
5.13932093255164
 31
0.0
  0
ENDBLK
  5
5C4
330
5B6
100
AcDbEntity
  8
0
100
AcDbBlockEnd
  0
ENDSEC
  0
SECTION
  2
ENTITIES
  0
TEXT
  5
95E
330
2
100
AcDbEntity
  8
ALL
 62
     1
100
AcDbText
 10
13.09903463867344
 20
9.689623037284331
 30
0.0
 40
0.075
  1
3/4" x 1"
 41
1.25
  7
TEST
 72
     1
 11
13.47849892438773
 21
9.689623037284331
 31
0.0
100
AcDbText
  0
TEXT
  5
95F
330
2
100
AcDbEntity
  8
ALL
 62
     1
100
AcDbText
 10
12.98393669971813
 20
9.834414461476972
 30
0.0
 40
0.125
  1
BWP-7002
 41
1.25
  7
PANROMAN
 72
     1
 11
13.47849892438773
 21
9.834414461476972
 31
0.0
100
AcDbText
  0
TEXT
  5
960
330
2
100
AcDbEntity
  8
ALL
 62
     1
100
AcDbText
 10
13.09903463867344
 20
9.689623037284331
 30
0.0
 40
0.075
  1
3/4" x 1"
 41
1.25
  7
TEST
 72
     1
 11
13.47849892438773
 21
9.689623037284331
 31
0.0
100
AcDbText
  0
TEXT
  5
961
330
2
100
AcDbEntity
  8
ALL
 62
     1
100
AcDbText
 10
12.98393669971813
 20
9.834414461476972
 30
0.0
 40
0.125
  1
BWP-7002
 41
1.25
  7
PANROMAN
 72
     1
 11
13.47849892438773
 21
9.834414461476972
 31
0.0
100
AcDbText
  0
LWPOLYLINE
  5
962
330
2
100
AcDbEntity
  8
ALL
 62
     3
100
AcDbPolyline
 90
       17
 70
     0
 43
0.0
 10
14.62227604496274
 20
11.16639881207497
 10
14.63605511185716
 20
11.17687283230892
 10
14.65308213680533
 20
11.19366794998936
 10
14.66786070748419
 20
11.21254286919783
 10
14.68014816017998
 20
11.2331876642933
 10
14.68974273526605
 20
11.25526334832261
 10
14.69648689009009
 20
11.27840743917667
 10
14.70026988582013
 20
11.30223991153646
 10
14.70102960577297
 20
11.32636943687802
 10
14.69875357536844
 20
11.35039980907587
 10
14.69347916696155
 20
11.37393645009632
 10
14.68529298618959
 20
11.39659288895765
 10
14.67432944990994
 20
11.41799710757284
 10
14.66076857907907
 20
11.43779764927593
 10
14.64483304281352
 20
11.45566938973067
 10
14.62678450216931
 20
11.47131887546286
 10
14.62163783003577
 20
11.47473102761234
  0
LWPOLYLINE
  5
963
330
2
100
AcDbEntity
  8
ALL
 62
     3
100
AcDbPolyline
 90
        2
 70
     0
 43
0.0
 10
13.94672450594042
 20
10.99753884793481
 10
13.94672450594042
 20
12.00120828200618
  0
LWPOLYLINE
  5
964
330
2
100
AcDbEntity
  8
ALL
 62
     3
100
AcDbPolyline
 90
       17
 70
     0
 43
0.0
 10
14.62227604496274
 20
11.16639881207497
 10
14.63605511185716
 20
11.17687283230892
 10
14.65308213680533
 20
11.19366794998936
 10
14.66786070748419
 20
11.21254286919783
 10
14.68014816017998
 20
11.2331876642933
 10
14.68974273526605
 20
11.25526334832261
 10
14.69648689009009
 20
11.27840743917667
 10
14.70026988582013
 20
11.30223991153646
 10
14.70102960577297
 20
11.32636943687802
 10
14.69875357536844
 20
11.35039980907587
 10
14.69347916696155
 20
11.37393645009632
 10
14.68529298618959
 20
11.39659288895765
 10
14.67432944990994
 20
11.41799710757284
 10
14.66076857907907
 20
11.43779764927593
 10
14.64483304281352
 20
11.45566938973067
 10
14.62678450216931
 20
11.47131887546286
 10
14.62163783003577
 20
11.47473102761234
  0
LWPOLYLINE
  5
965
330
2
100
AcDbEntity
  8
ALL
 62
     3
100
AcDbPolyline
 90
        2
 70
     0
 43
0.0
 10
13.94672450594042
 20
10.99753884793481
 10
13.94672450594042
 20
12.00120828200618
  0
LWPOLYLINE
  5
966
330
2
100
AcDbEntity
  8
ALL
 62
     3
100
AcDbPolyline
 90
        2
 70
     0
 43
0.0
 10
14.59756816625973
 20
10.99753884793481
 10
13.94672450594042
 20
10.99753884793481
  0
LWPOLYLINE
  5
967
330
2
100
AcDbEntity
  8
ALL
 62
     3
100
AcDbPolyline
 90
        2
 70
     0
 43
0.0
 10
14.59756816625973
 20
10.99753884793481
 10
13.94672450594042
 20
10.99753884793481
  0
LWPOLYLINE
  5
968
330
2
100
AcDbEntity
  8
ALL
 62
     3
100
AcDbPolyline
 90
        2
 70
     0
 43
0.0
 10
14.59756816625973
 20
10.99753884793481
 10
14.59756816625973
 20
11.09002715755914
  0
LWPOLYLINE
  5
969
330
2
100
AcDbEntity
  8
ALL
 62
     3
100
AcDbPolyline
 90
       12
 70
     0
 43
0.0
 10
14.64230854297463
 20
11.18304109199281
 10
14.63602774155633
 20
11.17895274342005
 10
14.62566654135223
 20
11.17013212529968
 10
14.61651836204607
 20
11.16005896347841
 10
14.60873341648405
 20
11.14889865898925
 10
14.6024395332527
 20
11.13683446371707
 10
14.59774005773715
 20
11.12406447140801
 10
14.59471215519282
 20
11.11079836497557
 10
14.59340554369408
 20
11.09725397351318
 10
14.59384167776491
 20
11.08365369554664
 10
14.59601339609612
 20
11.07022084725656
 10
14.59756816625973
 20
11.06498231005292
  0
LWPOLYLINE
  5
96A
330
2
100
AcDbEntity
  8
ALL
 62
     3
100
AcDbPolyline
 90
        2
 70
     0
 43
0.0
 10
14.59756816625973
 20
10.99753884793481
 10
14.59756816625973
 20
11.09002715755914
  0
LWPOLYLINE
  5
96B
330
2
100
AcDbEntity
  8
ALL
 62
     3
100
AcDbPolyline
 90
       12
 70
     0
 43
0.0
 10
14.64230854297463
 20
11.18304109199281
 10
14.63602774155633
 20
11.17895274342005
 10
14.62566654135223
 20
11.17013212529968
 10
14.61651836204607
 20
11.16005896347841
 10
14.60873341648405
 20
11.14889865898925
 10
14.6024395332527
 20
11.13683446371707
 10
14.59774005773715
 20
11.12406447140801
 10
14.59471215519282
 20
11.11079836497557
 10
14.59340554369408
 20
11.09725397351318
 10
14.59384167776491
 20
11.08365369554664
 10
14.59601339609612
 20
11.07022084725656
 10
14.59756816625973
 20
11.06498231005292
  0
LWPOLYLINE
  5
96C
330
2
100
AcDbEntity
  8
ALL
 62
     3
100
AcDbPolyline
 90
        4
 70
     0
 43
0.0
 10
14.1613334942467
 20
11.72597177859844
 10
14.18285026945913
 20
11.70366789329803
 10
14.50679410318181
 20
11.52122610593605
 10
14.62163783003577
 20
11.47473102761234
  0
LWPOLYLINE
  5
96D
330
2
100
AcDbEntity
  8
ALL
 62
     3
100
AcDbPolyline
 90
        4
 70
     0
 43
0.0
 10
14.1613334942467
 20
11.72597177859844
 10
14.18285026945913
 20
11.70366789329803
 10
14.50679410318181
 20
11.52122610593605
 10
14.62163783003577
 20
11.47473102761234
  0
LWPOLYLINE
  5
96E
330
2
100
AcDbEntity
  8
ALL
 62
     3
100
AcDbPolyline
 90
        2
 70
     0
 43
0.0
 10
14.13512661813811
 20
12.00120828200618
 10
13.94672450594042
 20
12.00120828200618
  0
LWPOLYLINE
  5
96F
330
2
100
AcDbEntity
  8
ALL
 62
     3
100
AcDbPolyline
 90
        2
 70
     0
 43
0.0
 10
14.13512661813811
 20
12.00120828200618
 10
13.94672450594042
 20
12.00120828200618
  0
LWPOLYLINE
  5
970
330
2
100
AcDbEntity
  8
ALL
 62
     3
100
AcDbPolyline
 90
       21
 70
     0
 43
0.0
 10
14.20375597610521
 20
11.7759487576086
 10
14.21506467668639
 20
11.7843886590636
 10
14.22641602665185
 20
11.79538182699988
 10
14.23626840710441
 20
11.80773631957271
 10
14.24446004223496
 20
11.82124927636246
 10
14.25085642562565
 20
11.83569881499982
 10
14.25535252884169
 20
11.85084767446795
 10
14.25787452599504
 20
11.86644711092162
 10
14.25838100596361
 20
11.88224098205429
 10
14.25686365236059
 20
11.89796995294741
 10
14.25334738008932
 20
11.91337575434262
 10
14.24788992624137
 20
11.9282054234155
 10
14.24058090205492
 20
11.94221545741817
 10
14.23154032150101
 20
11.95517581198745
 10
14.22091663065732
 20
11.96687367846692
 10
14.20888427022783
 20
11.9771169782189
 10
14.19564081123145
 20
11.98573751655041
 10
14.18140371089132
 20
11.99259374446516
 10
14.16640674199349
 20
11.9975730828942
 10
14.15089615434423
 20
12.00059377124098
 10
14.13512663135526
 20
12.00160620988802
  0
LWPOLYLINE
  5
971
330
2
100
AcDbEntity
  8
ALL
 62
     3
100
AcDbPolyline
 90
       21
 70
     0
 43
0.0
 10
14.20375597610521
 20
11.7759487576086
 10
14.21506467668639
 20
11.7843886590636
 10
14.22641602665185
 20
11.79538182699988
 10
14.23626840710441
 20
11.80773631957271
 10
14.24446004223496
 20
11.82124927636246
 10
14.25085642562565
 20
11.83569881499982
 10
14.25535252884169
 20
11.85084767446795
 10
14.25787452599504
 20
11.86644711092162
 10
14.25838100596361
 20
11.88224098205429
 10
14.25686365236059
 20
11.89796995294741
 10
14.25334738008932
 20
11.91337575434262
 10
14.24788992624137
 20
11.9282054234155
 10
14.24058090205492
 20
11.94221545741817
 10
14.23154032150101
 20
11.95517581198745
 10
14.22091663065732
 20
11.96687367846692
 10
14.20888427022783
 20
11.9771169782189
 10
14.19564081123145
 20
11.98573751655041
 10
14.18140371089132
 20
11.99259374446516
 10
14.16640674199349
 20
11.9975730828942
 10
14.15089615434423
 20
12.00059377124098
 10
14.13512663135526
 20
12.00160620988802
  0
LWPOLYLINE
  5
972
330
2
100
AcDbEntity
  8
ALL
 62
     3
100
AcDbPolyline
 90
        2
 70
     0
 43
0.0
 10
14.20375597610521
 20
11.7759487576086
 10
14.1613334942467
 20
11.72597177859844
  0
LWPOLYLINE
  5
973
330
2
100
AcDbEntity
  8
ALL
 62
     3
100
AcDbPolyline
 90
        2
 70
     0
 43
0.0
 10
14.20375597610521
 20
11.7759487576086
 10
14.1613334942467
 20
11.72597177859844
  0
LWPOLYLINE
  5
974
330
2
100
AcDbEntity
  8
ALL
 62
     3
100
AcDbPolyline
 90
        2
 70
     0
 43
0.0
 10
14.13512661813811
 20
12.00160620988802
 10
14.12892857007084
 20
12.00120828200618
  0
LWPOLYLINE
  5
975
330
2
100
AcDbEntity
  8
ALL
 62
     3
100
AcDbPolyline
 90
        2
 70
     0
 43
0.0
 10
14.13512661813811
 20
12.00160620988802
 10
14.12892857007084
 20
12.00120828200618
  0
ARC
  5
976
330
2
100
AcDbEntity
  8
ALL
 62
     3
100
AcDbCircle
 10
11.48651110048269
 20
6.509147019417644
 30
0.0
 40
0.2788223394968081
100
AcDbArc
 50
187.2588299365007
 51
251.027110149241
  0
ARC
  5
977
330
2
100
AcDbEntity
  8
ALL
 62
     3
100
AcDbCircle
 10
11.48651117648376
 20
6.50914739610207
 30
0.0
 40
0.2788219999999999
100
AcDbArc
 50
187.25883
 51
251.02711
  0
ARC
  5
978
330
2
100
AcDbEntity
  8
ALL
 62
     3
100
AcDbCircle
 10
11.48651117648376
 20
6.50914739610207
 30
0.0
 40
0.2788219999999999
100
AcDbArc
 50
187.25883
 51
251.02711
  0
ARC
  5
979
330
2
100
AcDbEntity
  8
ALL
 62
     3
100
AcDbCircle
 10
11.48651117648376
 20
6.50914739610207
 30
0.0
 40
0.2788219999999999
100
AcDbArc
 50
187.25883
 51
251.02711
  0
ARC
  5
97A
330
2
100
AcDbEntity
  8
ALL
 62
     3
100
AcDbCircle
 10
11.48651117648376
 20
6.50914739610207
 30
0.0
 40
0.2788219999999999
100
AcDbArc
 50
187.25883
 51
251.02711
  0
ARC
  5
97B
330
2
100
AcDbEntity
  8
ALL
 62
     3
100
AcDbCircle
 10
11.48651117648376
 20
6.50914739610207
 30
0.0
 40
0.2788219999999999
100
AcDbArc
 50
187.25883
 51
251.02711
  0
ARC
  5
97C
330
2
100
AcDbEntity
  8
ALL
 62
     3
100
AcDbCircle
 10
11.48651117648376
 20
6.50914739610207
 30
0.0
 40
0.2788219999999999
100
AcDbArc
 50
187.25883
 51
251.02711
  0
ARC
  5
97D
330
2
100
AcDbEntity
  8
ALL
 62
     3
100
AcDbCircle
 10
11.48651117648376
 20
6.50914739610207
 30
0.0
 40
0.2788219999999999
100
AcDbArc
 50
187.25883
 51
251.02711
  0
ARC
  5
97E
330
2
100
AcDbEntity
  8
ALL
 62
     3
100
AcDbCircle
 10
11.48651117648376
 20
6.50914739610207
 30
0.0
 40
0.2788219999999999
100
AcDbArc
 50
187.25883
 51
251.02711
  0
ARC
  5
97F
330
2
100
AcDbEntity
  8
ALL
 62
     3
100
AcDbCircle
 10
11.48651117648376
 20
6.50914739610207
 30
0.0
 40
0.2788219999999999
100
AcDbArc
 50
187.25883
 51
251.02711
  0
ARC
  5
980
330
2
100
AcDbEntity
  8
ALL
 62
     3
100
AcDbCircle
 10
11.48651117648376
 20
6.50914739610207
 30
0.0
 40
0.2788219999999999
100
AcDbArc
 50
187.25883
 51
251.02711
  0
ARC
  5
981
330
2
100
AcDbEntity
  8
ALL
 62
     3
100
AcDbCircle
 10
11.48651117648376
 20
6.50914739610207
 30
0.0
 40
0.2788219999999999
100
AcDbArc
 50
187.25883
 51
251.02711
  0
LINE
  5
982
330
2
100
AcDbEntity
  8
ALL
 62
     3
100
AcDbLine
 10
10.70836017648377
 20
5.557972396102065
 30
0.0
 11
10.70836017648377
 21
7.557972396102064
 31
0.0
  0
LINE
  5
983
330
2
100
AcDbEntity
  8
ALL
 62
     3
100
AcDbLine
 10
10.70836017648377
 20
5.557972396102065
 30
0.0
 11
10.70836017648377
 21
7.557972396102064
 31
0.0
  0
LINE
  5
984
330
2
100
AcDbEntity
  8
ALL
 62
     3
100
AcDbLine
 10
10.70836017648377
 20
5.557972396102065
 30
0.0
 11
10.70836017648377
 21
7.557972396102064
 31
0.0
  0
LINE
  5
985
330
2
100
AcDbEntity
  8
ALL
 62
     3
100
AcDbLine
 10
10.70836017648377
 20
5.557972396102065
 30
0.0
 11
10.70836017648377
 21
7.557972396102064
 31
0.0
  0
LINE
  5
986
330
2
100
AcDbEntity
  8
ALL
 62
     3
100
AcDbLine
 10
10.70836017648377
 20
5.557972396102065
 30
0.0
 11
10.70836017648377
 21
7.557972396102064
 31
0.0
  0
LINE
  5
987
330
2
100
AcDbEntity
  8
ALL
 62
     3
100
AcDbLine
 10
10.70836017648377
 20
5.557972396102065
 30
0.0
 11
10.70836017648377
 21
7.557972396102064
 31
0.0
  0
LINE
  5
988
330
2
100
AcDbEntity
  8
ALL
 62
     3
100
AcDbLine
 10
10.70836017648377
 20
5.557972396102065
 30
0.0
 11
10.70836017648377
 21
7.557972396102064
 31
0.0
  0
LINE
  5
989
330
2
100
AcDbEntity
  8
ALL
 62
     3
100
AcDbLine
 10
10.70836017648377
 20
5.557972396102065
 30
0.0
 11
10.70836017648377
 21
7.557972396102064
 31
0.0
  0
LINE
  5
98A
330
2
100
AcDbEntity
  8
ALL
 62
     3
100
AcDbLine
 10
10.70836017648377
 20
5.557972396102065
 30
0.0
 11
10.70836017648377
 21
7.557972396102064
 31
0.0
  0
LINE
  5
98B
330
2
100
AcDbEntity
  8
ALL
 62
     3
100
AcDbLine
 10
10.70836017648377
 20
5.557972396102065
 30
0.0
 11
10.70836017648377
 21
7.557972396102064
 31
0.0
  0
LINE
  5
98C
330
2
100
AcDbEntity
  8
ALL
 62
     3
100
AcDbLine
 10
10.70836017648377
 20
5.557972396102065
 30
0.0
 11
10.70836017648377
 21
7.557972396102064
 31
0.0
  0
LINE
  5
98D
330
2
100
AcDbEntity
  8
ALL
 62
     3
100
AcDbLine
 10
10.70836017648377
 20
5.557972396102065
 30
0.0
 11
10.70836017648377
 21
7.557972396102064
 31
0.0
  0
ARC
  5
98E
330
2
100
AcDbEntity
  8
ALL
 62
     3
100
AcDbCircle
 10
11.48651110048269
 20
6.509147019417644
 30
0.0
 40
0.2788223394968081
100
AcDbArc
 50
187.2588299365007
 51
251.027110149241
  0
ARC
  5
98F
330
2
100
AcDbEntity
  8
ALL
 62
     3
100
AcDbCircle
 10
11.48651117648376
 20
6.50914739610207
 30
0.0
 40
0.2788219999999999
100
AcDbArc
 50
187.25883
 51
251.02711
  0
ARC
  5
990
330
2
100
AcDbEntity
  8
ALL
 62
     3
100
AcDbCircle
 10
11.48651117648376
 20
6.50914739610207
 30
0.0
 40
0.2788219999999999
100
AcDbArc
 50
187.25883
 51
251.02711
  0
ARC
  5
991
330
2
100
AcDbEntity
  8
ALL
 62
     3
100
AcDbCircle
 10
11.48651117648376
 20
6.50914739610207
 30
0.0
 40
0.2788219999999999
100
AcDbArc
 50
187.25883
 51
251.02711
  0
ARC
  5
992
330
2
100
AcDbEntity
  8
ALL
 62
     3
100
AcDbCircle
 10
11.48651117648376
 20
6.50914739610207
 30
0.0
 40
0.2788219999999999
100
AcDbArc
 50
187.25883
 51
251.02711
  0
ARC
  5
993
330
2
100
AcDbEntity
  8
ALL
 62
     3
100
AcDbCircle
 10
11.48651117648376
 20
6.50914739610207
 30
0.0
 40
0.2788219999999999
100
AcDbArc
 50
187.25883
 51
251.02711
  0
ARC
  5
994
330
2
100
AcDbEntity
  8
ALL
 62
     3
100
AcDbCircle
 10
11.48651117648376
 20
6.50914739610207
 30
0.0
 40
0.2788219999999999
100
AcDbArc
 50
187.25883
 51
251.02711
  0
ARC
  5
995
330
2
100
AcDbEntity
  8
ALL
 62
     3
100
AcDbCircle
 10
11.48651117648376
 20
6.50914739610207
 30
0.0
 40
0.2788219999999999
100
AcDbArc
 50
187.25883
 51
251.02711
  0
ARC
  5
996
330
2
100
AcDbEntity
  8
ALL
 62
     3
100
AcDbCircle
 10
11.48651117648376
 20
6.50914739610207
 30
0.0
 40
0.2788219999999999
100
AcDbArc
 50
187.25883
 51
251.02711
  0
ARC
  5
997
330
2
100
AcDbEntity
  8
ALL
 62
     3
100
AcDbCircle
 10
11.48651117648376
 20
6.50914739610207
 30
0.0
 40
0.2788219999999999
100
AcDbArc
 50
187.25883
 51
251.02711
  0
ARC
  5
998
330
2
100
AcDbEntity
  8
ALL
 62
     3
100
AcDbCircle
 10
11.48651117648376
 20
6.50914739610207
 30
0.0
 40
0.2788219999999999
100
AcDbArc
 50
187.25883
 51
251.02711
  0
ARC
  5
999
330
2
100
AcDbEntity
  8
ALL
 62
     3
100
AcDbCircle
 10
11.48651117648376
 20
6.50914739610207
 30
0.0
 40
0.2788219999999999
100
AcDbArc
 50
187.25883
 51
251.02711
  0
LINE
  5
99A
330
2
100
AcDbEntity
  8
ALL
 62
     3
100
AcDbLine
 10
10.70836017648377
 20
5.557972396102065
 30
0.0
 11
10.70836017648377
 21
7.557972396102064
 31
0.0
  0
LINE
  5
99B
330
2
100
AcDbEntity
  8
ALL
 62
     3
100
AcDbLine
 10
10.70836017648377
 20
5.557972396102065
 30
0.0
 11
10.70836017648377
 21
7.557972396102064
 31
0.0
  0
LINE
  5
99C
330
2
100
AcDbEntity
  8
ALL
 62
     3
100
AcDbLine
 10
10.70836017648377
 20
5.557972396102065
 30
0.0
 11
10.70836017648377
 21
7.557972396102064
 31
0.0
  0
LINE
  5
99D
330
2
100
AcDbEntity
  8
ALL
 62
     3
100
AcDbLine
 10
10.70836017648377
 20
5.557972396102065
 30
0.0
 11
10.70836017648377
 21
7.557972396102064
 31
0.0
  0
LINE
  5
99E
330
2
100
AcDbEntity
  8
ALL
 62
     3
100
AcDbLine
 10
10.70836017648377
 20
5.557972396102065
 30
0.0
 11
10.70836017648377
 21
7.557972396102064
 31
0.0
  0
LINE
  5
99F
330
2
100
AcDbEntity
  8
ALL
 62
     3
100
AcDbLine
 10
10.70836017648377
 20
5.557972396102065
 30
0.0
 11
10.70836017648377
 21
7.557972396102064
 31
0.0
  0
LINE
  5
9A0
330
2
100
AcDbEntity
  8
ALL
 62
     3
100
AcDbLine
 10
10.70836017648377
 20
5.557972396102065
 30
0.0
 11
10.70836017648377
 21
7.557972396102064
 31
0.0
  0
LINE
  5
9A1
330
2
100
AcDbEntity
  8
ALL
 62
     3
100
AcDbLine
 10
10.70836017648377
 20
5.557972396102065
 30
0.0
 11
10.70836017648377
 21
7.557972396102064
 31
0.0
  0
LINE
  5
9A2
330
2
100
AcDbEntity
  8
ALL
 62
     3
100
AcDbLine
 10
10.70836017648377
 20
5.557972396102065
 30
0.0
 11
10.70836017648377
 21
7.557972396102064
 31
0.0
  0
LINE
  5
9A3
330
2
100
AcDbEntity
  8
ALL
 62
     3
100
AcDbLine
 10
10.70836017648377
 20
5.557972396102065
 30
0.0
 11
10.70836017648377
 21
7.557972396102064
 31
0.0
  0
LINE
  5
9A4
330
2
100
AcDbEntity
  8
ALL
 62
     3
100
AcDbLine
 10
10.70836017648377
 20
5.557972396102065
 30
0.0
 11
10.70836017648377
 21
7.557972396102064
 31
0.0
  0
LINE
  5
9A5
330
2
100
AcDbEntity
  8
ALL
 62
     3
100
AcDbLine
 10
10.70836017648377
 20
5.557972396102065
 30
0.0
 11
10.70836017648377
 21
7.557972396102064
 31
0.0
  0
LINE
  5
9A6
330
2
100
AcDbEntity
  8
ALL
 62
     3
100
AcDbLine
 10
11.39586017648377
 20
5.495472396102065
 30
0.0
 11
11.39586017648377
 21
5.620472396102065
 31
0.0
  0
LINE
  5
9A7
330
2
100
AcDbEntity
  8
ALL
 62
     3
100
AcDbLine
 10
11.39586017648377
 20
5.495472396102065
 30
0.0
 11
11.39586017648377
 21
5.620472396102065
 31
0.0
  0
LINE
  5
9A8
330
2
100
AcDbEntity
  8
ALL
 62
     3
100
AcDbLine
 10
11.39586017648377
 20
5.495472396102065
 30
0.0
 11
11.39586017648377
 21
5.620472396102065
 31
0.0
  0
LINE
  5
9A9
330
2
100
AcDbEntity
  8
ALL
 62
     3
100
AcDbLine
 10
11.39586017648377
 20
5.495472396102065
 30
0.0
 11
11.39586017648377
 21
5.620472396102065
 31
0.0
  0
LINE
  5
9AA
330
2
100
AcDbEntity
  8
ALL
 62
     3
100
AcDbLine
 10
11.39586017648377
 20
5.495472396102065
 30
0.0
 11
11.39586017648377
 21
5.620472396102065
 31
0.0
  0
LINE
  5
9AB
330
2
100
AcDbEntity
  8
ALL
 62
     3
100
AcDbLine
 10
11.39586017648377
 20
5.495472396102065
 30
0.0
 11
11.39586017648377
 21
5.620472396102065
 31
0.0
  0
LINE
  5
9AC
330
2
100
AcDbEntity
  8
ALL
 62
     3
100
AcDbLine
 10
11.39586017648377
 20
5.495472396102065
 30
0.0
 11
11.39586017648377
 21
5.620472396102065
 31
0.0
  0
LINE
  5
9AD
330
2
100
AcDbEntity
  8
ALL
 62
     3
100
AcDbLine
 10
11.39586017648377
 20
5.495472396102065
 30
0.0
 11
11.39586017648377
 21
5.620472396102065
 31
0.0
  0
LINE
  5
9AE
330
2
100
AcDbEntity
  8
ALL
 62
     3
100
AcDbLine
 10
11.39586017648377
 20
5.495472396102065
 30
0.0
 11
11.39586017648377
 21
5.620472396102065
 31
0.0
  0
LINE
  5
9AF
330
2
100
AcDbEntity
  8
ALL
 62
     3
100
AcDbLine
 10
11.39586017648377
 20
5.495472396102065
 30
0.0
 11
11.39586017648377
 21
5.620472396102065
 31
0.0
  0
LINE
  5
9B0
330
2
100
AcDbEntity
  8
ALL
 62
     3
100
AcDbLine
 10
11.39586017648377
 20
5.495472396102065
 30
0.0
 11
11.39586017648377
 21
5.620472396102065
 31
0.0
  0
LINE
  5
9B1
330
2
100
AcDbEntity
  8
ALL
 62
     3
100
AcDbLine
 10
11.39586017648377
 20
5.495472396102065
 30
0.0
 11
11.39586017648377
 21
5.620472396102065
 31
0.0
  0
LINE
  5
9B2
330
2
100
AcDbEntity
  8
ALL
 62
     3
100
AcDbLine
 10
11.08336017648377
 20
5.557972396102065
 30
0.0
 11
11.08336017648377
 21
5.307972396102065
 31
0.0
  0
LINE
  5
9B3
330
2
100
AcDbEntity
  8
ALL
 62
     3
100
AcDbLine
 10
11.08336017648377
 20
5.557972396102065
 30
0.0
 11
11.08336017648377
 21
5.307972396102065
 31
0.0
  0
LINE
  5
9B4
330
2
100
AcDbEntity
  8
ALL
 62
     3
100
AcDbLine
 10
11.08336017648377
 20
5.557972396102065
 30
0.0
 11
11.08336017648377
 21
5.307972396102065
 31
0.0
  0
LINE
  5
9B5
330
2
100
AcDbEntity
  8
ALL
 62
     3
100
AcDbLine
 10
11.08336017648377
 20
5.557972396102065
 30
0.0
 11
11.08336017648377
 21
5.307972396102065
 31
0.0
  0
LINE
  5
9B6
330
2
100
AcDbEntity
  8
ALL
 62
     3
100
AcDbLine
 10
11.08336017648377
 20
5.557972396102065
 30
0.0
 11
11.08336017648377
 21
5.307972396102065
 31
0.0
  0
LINE
  5
9B7
330
2
100
AcDbEntity
  8
ALL
 62
     3
100
AcDbLine
 10
11.08336017648377
 20
5.557972396102065
 30
0.0
 11
11.08336017648377
 21
5.307972396102065
 31
0.0
  0
LINE
  5
9B8
330
2
100
AcDbEntity
  8
ALL
 62
     3
100
AcDbLine
 10
11.08336017648377
 20
5.557972396102065
 30
0.0
 11
11.08336017648377
 21
5.307972396102065
 31
0.0
  0
LINE
  5
9B9
330
2
100
AcDbEntity
  8
ALL
 62
     3
100
AcDbLine
 10
11.08336017648377
 20
5.557972396102065
 30
0.0
 11
11.08336017648377
 21
5.307972396102065
 31
0.0
  0
LINE
  5
9BA
330
2
100
AcDbEntity
  8
ALL
 62
     3
100
AcDbLine
 10
11.08336017648377
 20
5.557972396102065
 30
0.0
 11
11.08336017648377
 21
5.307972396102065
 31
0.0
  0
LINE
  5
9BB
330
2
100
AcDbEntity
  8
ALL
 62
     3
100
AcDbLine
 10
11.08336017648377
 20
5.557972396102065
 30
0.0
 11
11.08336017648377
 21
5.307972396102065
 31
0.0
  0
LINE
  5
9BC
330
2
100
AcDbEntity
  8
ALL
 62
     3
100
AcDbLine
 10
11.08336017648377
 20
5.557972396102065
 30
0.0
 11
11.08336017648377
 21
5.307972396102065
 31
0.0
  0
LINE
  5
9BD
330
2
100
AcDbEntity
  8
ALL
 62
     3
100
AcDbLine
 10
11.08336017648377
 20
5.557972396102065
 30
0.0
 11
11.08336017648377
 21
5.307972396102065
 31
0.0
  0
LINE
  5
9BE
330
2
100
AcDbEntity
  8
ALL
 62
     3
100
AcDbLine
 10
11.39586017648377
 20
5.495472396102065
 30
0.0
 11
11.39586017648377
 21
5.620472396102065
 31
0.0
  0
LINE
  5
9BF
330
2
100
AcDbEntity
  8
ALL
 62
     3
100
AcDbLine
 10
11.39586017648377
 20
5.495472396102065
 30
0.0
 11
11.39586017648377
 21
5.620472396102065
 31
0.0
  0
LINE
  5
9C0
330
2
100
AcDbEntity
  8
ALL
 62
     3
100
AcDbLine
 10
11.39586017648377
 20
5.495472396102065
 30
0.0
 11
11.39586017648377
 21
5.620472396102065
 31
0.0
  0
LINE
  5
9C1
330
2
100
AcDbEntity
  8
ALL
 62
     3
100
AcDbLine
 10
11.39586017648377
 20
5.495472396102065
 30
0.0
 11
11.39586017648377
 21
5.620472396102065
 31
0.0
  0
LINE
  5
9C2
330
2
100
AcDbEntity
  8
ALL
 62
     3
100
AcDbLine
 10
11.39586017648377
 20
5.495472396102065
 30
0.0
 11
11.39586017648377
 21
5.620472396102065
 31
0.0
  0
LINE
  5
9C3
330
2
100
AcDbEntity
  8
ALL
 62
     3
100
AcDbLine
 10
11.39586017648377
 20
5.495472396102065
 30
0.0
 11
11.39586017648377
 21
5.620472396102065
 31
0.0
  0
LINE
  5
9C4
330
2
100
AcDbEntity
  8
ALL
 62
     3
100
AcDbLine
 10
11.39586017648377
 20
5.495472396102065
 30
0.0
 11
11.39586017648377
 21
5.620472396102065
 31
0.0
  0
LINE
  5
9C5
330
2
100
AcDbEntity
  8
ALL
 62
     3
100
AcDbLine
 10
11.39586017648377
 20
5.495472396102065
 30
0.0
 11
11.39586017648377
 21
5.620472396102065
 31
0.0
  0
LINE
  5
9C6
330
2
100
AcDbEntity
  8
ALL
 62
     3
100
AcDbLine
 10
11.39586017648377
 20
5.495472396102065
 30
0.0
 11
11.39586017648377
 21
5.620472396102065
 31
0.0
  0
LINE
  5
9C7
330
2
100
AcDbEntity
  8
ALL
 62
     3
100
AcDbLine
 10
11.39586017648377
 20
5.495472396102065
 30
0.0
 11
11.39586017648377
 21
5.620472396102065
 31
0.0
  0
LINE
  5
9C8
330
2
100
AcDbEntity
  8
ALL
 62
     3
100
AcDbLine
 10
11.39586017648377
 20
5.495472396102065
 30
0.0
 11
11.39586017648377
 21
5.620472396102065
 31
0.0
  0
LINE
  5
9C9
330
2
100
AcDbEntity
  8
ALL
 62
     3
100
AcDbLine
 10
11.39586017648377
 20
5.495472396102065
 30
0.0
 11
11.39586017648377
 21
5.620472396102065
 31
0.0
  0
LINE
  5
9CA
330
2
100
AcDbEntity
  8
ALL
 62
     3
100
AcDbLine
 10
11.08336017648377
 20
5.557972396102065
 30
0.0
 11
11.08336017648377
 21
5.307972396102065
 31
0.0
  0
LINE
  5
9CB
330
2
100
AcDbEntity
  8
ALL
 62
     3
100
AcDbLine
 10
11.08336017648377
 20
5.557972396102065
 30
0.0
 11
11.08336017648377
 21
5.307972396102065
 31
0.0
  0
LINE
  5
9CC
330
2
100
AcDbEntity
  8
ALL
 62
     3
100
AcDbLine
 10
11.08336017648377
 20
5.557972396102065
 30
0.0
 11
11.08336017648377
 21
5.307972396102065
 31
0.0
  0
LINE
  5
9CD
330
2
100
AcDbEntity
  8
ALL
 62
     3
100
AcDbLine
 10
11.08336017648377
 20
5.557972396102065
 30
0.0
 11
11.08336017648377
 21
5.307972396102065
 31
0.0
  0
LINE
  5
9CE
330
2
100
AcDbEntity
  8
ALL
 62
     3
100
AcDbLine
 10
11.08336017648377
 20
5.557972396102065
 30
0.0
 11
11.08336017648377
 21
5.307972396102065
 31
0.0
  0
LINE
  5
9CF
330
2
100
AcDbEntity
  8
ALL
 62
     3
100
AcDbLine
 10
11.08336017648377
 20
5.557972396102065
 30
0.0
 11
11.08336017648377
 21
5.307972396102065
 31
0.0
  0
LINE
  5
9D0
330
2
100
AcDbEntity
  8
ALL
 62
     3
100
AcDbLine
 10
11.08336017648377
 20
5.557972396102065
 30
0.0
 11
11.08336017648377
 21
5.307972396102065
 31
0.0
  0
LINE
  5
9D1
330
2
100
AcDbEntity
  8
ALL
 62
     3
100
AcDbLine
 10
11.08336017648377
 20
5.557972396102065
 30
0.0
 11
11.08336017648377
 21
5.307972396102065
 31
0.0
  0
LINE
  5
9D2
330
2
100
AcDbEntity
  8
ALL
 62
     3
100
AcDbLine
 10
11.08336017648377
 20
5.557972396102065
 30
0.0
 11
11.08336017648377
 21
5.307972396102065
 31
0.0
  0
LINE
  5
9D3
330
2
100
AcDbEntity
  8
ALL
 62
     3
100
AcDbLine
 10
11.08336017648377
 20
5.557972396102065
 30
0.0
 11
11.08336017648377
 21
5.307972396102065
 31
0.0
  0
LINE
  5
9D4
330
2
100
AcDbEntity
  8
ALL
 62
     3
100
AcDbLine
 10
11.08336017648377
 20
5.557972396102065
 30
0.0
 11
11.08336017648377
 21
5.307972396102065
 31
0.0
  0
LINE
  5
9D5
330
2
100
AcDbEntity
  8
ALL
 62
     3
100
AcDbLine
 10
11.08336017648377
 20
5.557972396102065
 30
0.0
 11
11.08336017648377
 21
5.307972396102065
 31
0.0
  0
ARC
  5
9D6
330
2
100
AcDbEntity
  8
ALL
 62
     3
100
AcDbCircle
 10
11.39586017648377
 20
5.307972396102065
 30
0.0
 40
0.1875
100
AcDbArc
 50
90.0
 51
180.0
  0
ARC
  5
9D7
330
2
100
AcDbEntity
  8
ALL
 62
     3
100
AcDbCircle
 10
11.39586017648377
 20
5.307972396102065
 30
0.0
 40
0.1875
100
AcDbArc
 50
90.0
 51
180.0
  0
ARC
  5
9D8
330
2
100
AcDbEntity
  8
ALL
 62
     3
100
AcDbCircle
 10
11.39586017648377
 20
5.307972396102065
 30
0.0
 40
0.1875
100
AcDbArc
 50
90.0
 51
180.0
  0
ARC
  5
9D9
330
2
100
AcDbEntity
  8
ALL
 62
     3
100
AcDbCircle
 10
11.39586017648377
 20
5.307972396102065
 30
0.0
 40
0.1875
100
AcDbArc
 50
90.0
 51
180.0
  0
ARC
  5
9DA
330
2
100
AcDbEntity
  8
ALL
 62
     3
100
AcDbCircle
 10
11.39586017648377
 20
5.307972396102065
 30
0.0
 40
0.1875
100
AcDbArc
 50
90.0
 51
180.0
  0
ARC
  5
9DB
330
2
100
AcDbEntity
  8
ALL
 62
     3
100
AcDbCircle
 10
11.39586017648377
 20
5.307972396102065
 30
0.0
 40
0.1875
100
AcDbArc
 50
90.0
 51
180.0
  0
ARC
  5
9DC
330
2
100
AcDbEntity
  8
ALL
 62
     3
100
AcDbCircle
 10
11.39586017648377
 20
5.307972396102065
 30
0.0
 40
0.1875
100
AcDbArc
 50
90.0
 51
180.0
  0
ARC
  5
9DD
330
2
100
AcDbEntity
  8
ALL
 62
     3
100
AcDbCircle
 10
11.39586017648377
 20
5.307972396102065
 30
0.0
 40
0.1875
100
AcDbArc
 50
90.0
 51
180.0
  0
ARC
  5
9DE
330
2
100
AcDbEntity
  8
ALL
 62
     3
100
AcDbCircle
 10
11.39586017648377
 20
5.307972396102065
 30
0.0
 40
0.1875
100
AcDbArc
 50
90.0
 51
180.0
  0
ARC
  5
9DF
330
2
100
AcDbEntity
  8
ALL
 62
     3
100
AcDbCircle
 10
11.39586017648377
 20
5.307972396102065
 30
0.0
 40
0.1875
100
AcDbArc
 50
90.0
 51
180.0
  0
ARC
  5
9E0
330
2
100
AcDbEntity
  8
ALL
 62
     3
100
AcDbCircle
 10
11.39586017648377
 20
5.307972396102065
 30
0.0
 40
0.1875
100
AcDbArc
 50
90.0
 51
180.0
  0
ARC
  5
9E1
330
2
100
AcDbEntity
  8
ALL
 62
     3
100
AcDbCircle
 10
11.39586017648377
 20
5.307972396102065
 30
0.0
 40
0.1875
100
AcDbArc
 50
90.0
 51
180.0
  0
ARC
  5
9E2
330
2
100
AcDbEntity
  8
ALL
 62
     3
100
AcDbCircle
 10
11.39586017648377
 20
5.307972396102065
 30
0.0
 40
0.1875
100
AcDbArc
 50
90.0
 51
180.0
  0
ARC
  5
9E3
330
2
100
AcDbEntity
  8
ALL
 62
     3
100
AcDbCircle
 10
11.39586017648377
 20
5.307972396102065
 30
0.0
 40
0.1875
100
AcDbArc
 50
90.0
 51
180.0
  0
ARC
  5
9E4
330
2
100
AcDbEntity
  8
ALL
 62
     3
100
AcDbCircle
 10
11.39586017648377
 20
5.307972396102065
 30
0.0
 40
0.1875
100
AcDbArc
 50
90.0
 51
180.0
  0
ARC
  5
9E5
330
2
100
AcDbEntity
  8
ALL
 62
     3
100
AcDbCircle
 10
11.39586017648377
 20
5.307972396102065
 30
0.0
 40
0.1875
100
AcDbArc
 50
90.0
 51
180.0
  0
ARC
  5
9E6
330
2
100
AcDbEntity
  8
ALL
 62
     3
100
AcDbCircle
 10
11.39586017648377
 20
5.307972396102065
 30
0.0
 40
0.1875
100
AcDbArc
 50
90.0
 51
180.0
  0
ARC
  5
9E7
330
2
100
AcDbEntity
  8
ALL
 62
     3
100
AcDbCircle
 10
11.39586017648377
 20
5.307972396102065
 30
0.0
 40
0.1875
100
AcDbArc
 50
90.0
 51
180.0
  0
ARC
  5
9E8
330
2
100
AcDbEntity
  8
ALL
 62
     3
100
AcDbCircle
 10
11.39586017648377
 20
5.307972396102065
 30
0.0
 40
0.1875
100
AcDbArc
 50
90.0
 51
180.0
  0
ARC
  5
9E9
330
2
100
AcDbEntity
  8
ALL
 62
     3
100
AcDbCircle
 10
11.39586017648377
 20
5.307972396102065
 30
0.0
 40
0.1875
100
AcDbArc
 50
90.0
 51
180.0
  0
ARC
  5
9EA
330
2
100
AcDbEntity
  8
ALL
 62
     3
100
AcDbCircle
 10
11.39586017648377
 20
5.307972396102065
 30
0.0
 40
0.1875
100
AcDbArc
 50
90.0
 51
180.0
  0
ARC
  5
9EB
330
2
100
AcDbEntity
  8
ALL
 62
     3
100
AcDbCircle
 10
11.39586017648377
 20
5.307972396102065
 30
0.0
 40
0.1875
100
AcDbArc
 50
90.0
 51
180.0
  0
ARC
  5
9EC
330
2
100
AcDbEntity
  8
ALL
 62
     3
100
AcDbCircle
 10
11.39586017648377
 20
5.307972396102065
 30
0.0
 40
0.1875
100
AcDbArc
 50
90.0
 51
180.0
  0
ARC
  5
9ED
330
2
100
AcDbEntity
  8
ALL
 62
     3
100
AcDbCircle
 10
11.39586017648377
 20
5.307972396102065
 30
0.0
 40
0.1875
100
AcDbArc
 50
90.0
 51
180.0
  0
LINE
  5
9EE
330
2
100
AcDbEntity
  8
ALL
 62
     3
100
AcDbLine
 10
11.08336017648377
 20
5.307972396102065
 30
0.0
 11
11.20836017648377
 21
5.307972396102065
 31
0.0
  0
LINE
  5
9EF
330
2
100
AcDbEntity
  8
ALL
 62
     3
100
AcDbLine
 10
11.08336017648377
 20
5.307972396102065
 30
0.0
 11
11.20836017648377
 21
5.307972396102065
 31
0.0
  0
LINE
  5
9F0
330
2
100
AcDbEntity
  8
ALL
 62
     3
100
AcDbLine
 10
11.08336017648377
 20
5.307972396102065
 30
0.0
 11
11.20836017648377
 21
5.307972396102065
 31
0.0
  0
LINE
  5
9F1
330
2
100
AcDbEntity
  8
ALL
 62
     3
100
AcDbLine
 10
11.08336017648377
 20
5.307972396102065
 30
0.0
 11
11.20836017648377
 21
5.307972396102065
 31
0.0
  0
LINE
  5
9F2
330
2
100
AcDbEntity
  8
ALL
 62
     3
100
AcDbLine
 10
11.08336017648377
 20
5.307972396102065
 30
0.0
 11
11.20836017648377
 21
5.307972396102065
 31
0.0
  0
LINE
  5
9F3
330
2
100
AcDbEntity
  8
ALL
 62
     3
100
AcDbLine
 10
11.08336017648377
 20
5.307972396102065
 30
0.0
 11
11.20836017648377
 21
5.307972396102065
 31
0.0
  0
LINE
  5
9F4
330
2
100
AcDbEntity
  8
ALL
 62
     3
100
AcDbLine
 10
11.08336017648377
 20
5.307972396102065
 30
0.0
 11
11.20836017648377
 21
5.307972396102065
 31
0.0
  0
LINE
  5
9F5
330
2
100
AcDbEntity
  8
ALL
 62
     3
100
AcDbLine
 10
11.08336017648377
 20
5.307972396102065
 30
0.0
 11
11.20836017648377
 21
5.307972396102065
 31
0.0
  0
LINE
  5
9F6
330
2
100
AcDbEntity
  8
ALL
 62
     3
100
AcDbLine
 10
11.08336017648377
 20
5.307972396102065
 30
0.0
 11
11.20836017648377
 21
5.307972396102065
 31
0.0
  0
LINE
  5
9F7
330
2
100
AcDbEntity
  8
ALL
 62
     3
100
AcDbLine
 10
11.08336017648377
 20
5.307972396102065
 30
0.0
 11
11.20836017648377
 21
5.307972396102065
 31
0.0
  0
LINE
  5
9F8
330
2
100
AcDbEntity
  8
ALL
 62
     3
100
AcDbLine
 10
11.08336017648377
 20
5.307972396102065
 30
0.0
 11
11.20836017648377
 21
5.307972396102065
 31
0.0
  0
LINE
  5
9F9
330
2
100
AcDbEntity
  8
ALL
 62
     3
100
AcDbLine
 10
11.08336017648377
 20
5.307972396102065
 30
0.0
 11
11.20836017648377
 21
5.307972396102065
 31
0.0
  0
LINE
  5
9FA
330
2
100
AcDbEntity
  8
ALL
 62
     3
100
AcDbLine
 10
11.08336017648377
 20
5.307972396102065
 30
0.0
 11
11.20836017648377
 21
5.307972396102065
 31
0.0
  0
LINE
  5
9FB
330
2
100
AcDbEntity
  8
ALL
 62
     3
100
AcDbLine
 10
11.08336017648377
 20
5.307972396102065
 30
0.0
 11
11.20836017648377
 21
5.307972396102065
 31
0.0
  0
LINE
  5
9FC
330
2
100
AcDbEntity
  8
ALL
 62
     3
100
AcDbLine
 10
11.08336017648377
 20
5.307972396102065
 30
0.0
 11
11.20836017648377
 21
5.307972396102065
 31
0.0
  0
LINE
  5
9FD
330
2
100
AcDbEntity
  8
ALL
 62
     3
100
AcDbLine
 10
11.08336017648377
 20
5.307972396102065
 30
0.0
 11
11.20836017648377
 21
5.307972396102065
 31
0.0
  0
LINE
  5
9FE
330
2
100
AcDbEntity
  8
ALL
 62
     3
100
AcDbLine
 10
11.08336017648377
 20
5.307972396102065
 30
0.0
 11
11.20836017648377
 21
5.307972396102065
 31
0.0
  0
LINE
  5
9FF
330
2
100
AcDbEntity
  8
ALL
 62
     3
100
AcDbLine
 10
11.08336017648377
 20
5.307972396102065
 30
0.0
 11
11.20836017648377
 21
5.307972396102065
 31
0.0
  0
LINE
  5
A00
330
2
100
AcDbEntity
  8
ALL
 62
     3
100
AcDbLine
 10
11.08336017648377
 20
5.307972396102065
 30
0.0
 11
11.20836017648377
 21
5.307972396102065
 31
0.0
  0
LINE
  5
A01
330
2
100
AcDbEntity
  8
ALL
 62
     3
100
AcDbLine
 10
11.08336017648377
 20
5.307972396102065
 30
0.0
 11
11.20836017648377
 21
5.307972396102065
 31
0.0
  0
LINE
  5
A02
330
2
100
AcDbEntity
  8
ALL
 62
     3
100
AcDbLine
 10
11.08336017648377
 20
5.307972396102065
 30
0.0
 11
11.20836017648377
 21
5.307972396102065
 31
0.0
  0
LINE
  5
A03
330
2
100
AcDbEntity
  8
ALL
 62
     3
100
AcDbLine
 10
11.08336017648377
 20
5.307972396102065
 30
0.0
 11
11.20836017648377
 21
5.307972396102065
 31
0.0
  0
LINE
  5
A04
330
2
100
AcDbEntity
  8
ALL
 62
     3
100
AcDbLine
 10
11.08336017648377
 20
5.307972396102065
 30
0.0
 11
11.20836017648377
 21
5.307972396102065
 31
0.0
  0
LINE
  5
A05
330
2
100
AcDbEntity
  8
ALL
 62
     3
100
AcDbLine
 10
11.08336017648377
 20
5.307972396102065
 30
0.0
 11
11.20836017648377
 21
5.307972396102065
 31
0.0
  0
LINE
  5
A06
330
2
100
AcDbEntity
  8
ALL
 62
     3
100
AcDbLine
 10
10.70836017648377
 20
5.557972396102065
 30
0.0
 11
11.08336017648377
 21
5.557972396102065
 31
0.0
  0
LINE
  5
A07
330
2
100
AcDbEntity
  8
ALL
 62
     3
100
AcDbLine
 10
10.70836017648377
 20
5.557972396102065
 30
0.0
 11
11.08336017648377
 21
5.557972396102065
 31
0.0
  0
LINE
  5
A08
330
2
100
AcDbEntity
  8
ALL
 62
     3
100
AcDbLine
 10
10.70836017648377
 20
5.557972396102065
 30
0.0
 11
11.08336017648377
 21
5.557972396102065
 31
0.0
  0
LINE
  5
A09
330
2
100
AcDbEntity
  8
ALL
 62
     3
100
AcDbLine
 10
10.70836017648377
 20
5.557972396102065
 30
0.0
 11
11.08336017648377
 21
5.557972396102065
 31
0.0
  0
LINE
  5
A0A
330
2
100
AcDbEntity
  8
ALL
 62
     3
100
AcDbLine
 10
10.70836017648377
 20
5.557972396102065
 30
0.0
 11
11.08336017648377
 21
5.557972396102065
 31
0.0
  0
LINE
  5
A0B
330
2
100
AcDbEntity
  8
ALL
 62
     3
100
AcDbLine
 10
10.70836017648377
 20
5.557972396102065
 30
0.0
 11
11.08336017648377
 21
5.557972396102065
 31
0.0
  0
LINE
  5
A0C
330
2
100
AcDbEntity
  8
ALL
 62
     3
100
AcDbLine
 10
10.70836017648377
 20
5.557972396102065
 30
0.0
 11
11.08336017648377
 21
5.557972396102065
 31
0.0
  0
LINE
  5
A0D
330
2
100
AcDbEntity
  8
ALL
 62
     3
100
AcDbLine
 10
10.70836017648377
 20
5.557972396102065
 30
0.0
 11
11.08336017648377
 21
5.557972396102065
 31
0.0
  0
LINE
  5
A0E
330
2
100
AcDbEntity
  8
ALL
 62
     3
100
AcDbLine
 10
10.70836017648377
 20
5.557972396102065
 30
0.0
 11
11.08336017648377
 21
5.557972396102065
 31
0.0
  0
LINE
  5
A0F
330
2
100
AcDbEntity
  8
ALL
 62
     3
100
AcDbLine
 10
10.70836017648377
 20
5.557972396102065
 30
0.0
 11
11.08336017648377
 21
5.557972396102065
 31
0.0
  0
LINE
  5
A10
330
2
100
AcDbEntity
  8
ALL
 62
     3
100
AcDbLine
 10
10.70836017648377
 20
5.557972396102065
 30
0.0
 11
11.08336017648377
 21
5.557972396102065
 31
0.0
  0
LINE
  5
A11
330
2
100
AcDbEntity
  8
ALL
 62
     3
100
AcDbLine
 10
10.70836017648377
 20
5.557972396102065
 30
0.0
 11
11.08336017648377
 21
5.557972396102065
 31
0.0
  0
LINE
  5
A12
330
2
100
AcDbEntity
  8
ALL
 62
     3
100
AcDbLine
 10
10.70836017648377
 20
5.557972396102065
 30
0.0
 11
11.08336017648377
 21
5.557972396102065
 31
0.0
  0
LINE
  5
A13
330
2
100
AcDbEntity
  8
ALL
 62
     3
100
AcDbLine
 10
10.70836017648377
 20
5.557972396102065
 30
0.0
 11
11.08336017648377
 21
5.557972396102065
 31
0.0
  0
LINE
  5
A14
330
2
100
AcDbEntity
  8
ALL
 62
     3
100
AcDbLine
 10
10.70836017648377
 20
5.557972396102065
 30
0.0
 11
11.08336017648377
 21
5.557972396102065
 31
0.0
  0
LINE
  5
A15
330
2
100
AcDbEntity
  8
ALL
 62
     3
100
AcDbLine
 10
10.70836017648377
 20
5.557972396102065
 30
0.0
 11
11.08336017648377
 21
5.557972396102065
 31
0.0
  0
LINE
  5
A16
330
2
100
AcDbEntity
  8
ALL
 62
     3
100
AcDbLine
 10
10.70836017648377
 20
5.557972396102065
 30
0.0
 11
11.08336017648377
 21
5.557972396102065
 31
0.0
  0
LINE
  5
A17
330
2
100
AcDbEntity
  8
ALL
 62
     3
100
AcDbLine
 10
10.70836017648377
 20
5.557972396102065
 30
0.0
 11
11.08336017648377
 21
5.557972396102065
 31
0.0
  0
LINE
  5
A18
330
2
100
AcDbEntity
  8
ALL
 62
     3
100
AcDbLine
 10
10.70836017648377
 20
5.557972396102065
 30
0.0
 11
11.08336017648377
 21
5.557972396102065
 31
0.0
  0
LINE
  5
A19
330
2
100
AcDbEntity
  8
ALL
 62
     3
100
AcDbLine
 10
10.70836017648377
 20
5.557972396102065
 30
0.0
 11
11.08336017648377
 21
5.557972396102065
 31
0.0
  0
LINE
  5
A1A
330
2
100
AcDbEntity
  8
ALL
 62
     3
100
AcDbLine
 10
10.70836017648377
 20
5.557972396102065
 30
0.0
 11
11.08336017648377
 21
5.557972396102065
 31
0.0
  0
LINE
  5
A1B
330
2
100
AcDbEntity
  8
ALL
 62
     3
100
AcDbLine
 10
10.70836017648377
 20
5.557972396102065
 30
0.0
 11
11.08336017648377
 21
5.557972396102065
 31
0.0
  0
LINE
  5
A1C
330
2
100
AcDbEntity
  8
ALL
 62
     3
100
AcDbLine
 10
10.70836017648377
 20
5.557972396102065
 30
0.0
 11
11.08336017648377
 21
5.557972396102065
 31
0.0
  0
LINE
  5
A1D
330
2
100
AcDbEntity
  8
ALL
 62
     3
100
AcDbLine
 10
10.70836017648377
 20
5.557972396102065
 30
0.0
 11
11.08336017648377
 21
5.557972396102065
 31
0.0
  0
ARC
  5
A1E
330
2
100
AcDbEntity
  8
ALL
 62
     3
100
AcDbCircle
 10
11.14352196556395
 20
5.901722396102065
 30
0.0
 40
0.3778572947426221
100
AcDbArc
 50
311.8985348753048
 51
48.10146512469509
  0
ARC
  5
A1F
330
2
100
AcDbEntity
  8
ALL
 62
     3
100
AcDbCircle
 10
11.14352217648376
 20
5.901722396102065
 30
0.0
 40
0.377857
100
AcDbArc
 50
311.8985349999999
 51
48.10146500000002
  0
ARC
  5
A20
330
2
100
AcDbEntity
  8
ALL
 62
     3
100
AcDbCircle
 10
11.14352217648376
 20
5.901722396102065
 30
0.0
 40
0.377857
100
AcDbArc
 50
311.8985349999999
 51
48.10146500000002
  0
ARC
  5
A21
330
2
100
AcDbEntity
  8
ALL
 62
     3
100
AcDbCircle
 10
11.14352217648376
 20
5.901722396102065
 30
0.0
 40
0.377857
100
AcDbArc
 50
311.8985349999999
 51
48.10146500000002
  0
ARC
  5
A22
330
2
100
AcDbEntity
  8
ALL
 62
     3
100
AcDbCircle
 10
11.14352217648376
 20
5.901722396102065
 30
0.0
 40
0.377857
100
AcDbArc
 50
311.8985349999999
 51
48.10146500000002
  0
ARC
  5
A23
330
2
100
AcDbEntity
  8
ALL
 62
     3
100
AcDbCircle
 10
11.14352217648376
 20
5.901722396102065
 30
0.0
 40
0.377857
100
AcDbArc
 50
311.8985349999999
 51
48.10146500000002
  0
ARC
  5
A24
330
2
100
AcDbEntity
  8
ALL
 62
     3
100
AcDbCircle
 10
11.14352217648376
 20
5.901722396102065
 30
0.0
 40
0.377857
100
AcDbArc
 50
311.8985349999999
 51
48.10146500000002
  0
ARC
  5
A25
330
2
100
AcDbEntity
  8
ALL
 62
     3
100
AcDbCircle
 10
11.14352217648376
 20
5.901722396102065
 30
0.0
 40
0.377857
100
AcDbArc
 50
311.8985349999999
 51
48.10146500000002
  0
ARC
  5
A26
330
2
100
AcDbEntity
  8
ALL
 62
     3
100
AcDbCircle
 10
11.14352217648376
 20
5.901722396102065
 30
0.0
 40
0.377857
100
AcDbArc
 50
311.8985349999999
 51
48.10146500000002
  0
ARC
  5
A27
330
2
100
AcDbEntity
  8
ALL
 62
     3
100
AcDbCircle
 10
11.14352217648376
 20
5.901722396102065
 30
0.0
 40
0.377857
100
AcDbArc
 50
311.8985349999999
 51
48.10146500000002
  0
ARC
  5
A28
330
2
100
AcDbEntity
  8
ALL
 62
     3
100
AcDbCircle
 10
11.14352217648376
 20
5.901722396102065
 30
0.0
 40
0.377857
100
AcDbArc
 50
311.8985349999999
 51
48.10146500000002
  0
ARC
  5
A29
330
2
100
AcDbEntity
  8
ALL
 62
     3
100
AcDbCircle
 10
11.14352217648376
 20
5.901722396102065
 30
0.0
 40
0.377857
100
AcDbArc
 50
311.8985349999999
 51
48.10146500000002
  0
ARC
  5
A2A
330
2
100
AcDbEntity
  8
ALL
 62
     3
100
AcDbCircle
 10
11.14352196556395
 20
5.901722396102065
 30
0.0
 40
0.3778572947426221
100
AcDbArc
 50
311.8985348753048
 51
48.10146512469509
  0
ARC
  5
A2B
330
2
100
AcDbEntity
  8
ALL
 62
     3
100
AcDbCircle
 10
11.14352217648376
 20
5.901722396102065
 30
0.0
 40
0.377857
100
AcDbArc
 50
311.8985349999999
 51
48.10146500000002
  0
ARC
  5
A2C
330
2
100
AcDbEntity
  8
ALL
 62
     3
100
AcDbCircle
 10
11.14352217648376
 20
5.901722396102065
 30
0.0
 40
0.377857
100
AcDbArc
 50
311.8985349999999
 51
48.10146500000002
  0
ARC
  5
A2D
330
2
100
AcDbEntity
  8
ALL
 62
     3
100
AcDbCircle
 10
11.14352217648376
 20
5.901722396102065
 30
0.0
 40
0.377857
100
AcDbArc
 50
311.8985349999999
 51
48.10146500000002
  0
ARC
  5
A2E
330
2
100
AcDbEntity
  8
ALL
 62
     3
100
AcDbCircle
 10
11.14352217648376
 20
5.901722396102065
 30
0.0
 40
0.377857
100
AcDbArc
 50
311.8985349999999
 51
48.10146500000002
  0
ARC
  5
A2F
330
2
100
AcDbEntity
  8
ALL
 62
     3
100
AcDbCircle
 10
11.14352217648376
 20
5.901722396102065
 30
0.0
 40
0.377857
100
AcDbArc
 50
311.8985349999999
 51
48.10146500000002
  0
ARC
  5
A30
330
2
100
AcDbEntity
  8
ALL
 62
     3
100
AcDbCircle
 10
11.14352217648376
 20
5.901722396102065
 30
0.0
 40
0.377857
100
AcDbArc
 50
311.8985349999999
 51
48.10146500000002
  0
ARC
  5
A31
330
2
100
AcDbEntity
  8
ALL
 62
     3
100
AcDbCircle
 10
11.14352217648376
 20
5.901722396102065
 30
0.0
 40
0.377857
100
AcDbArc
 50
311.8985349999999
 51
48.10146500000002
  0
ARC
  5
A32
330
2
100
AcDbEntity
  8
ALL
 62
     3
100
AcDbCircle
 10
11.14352217648376
 20
5.901722396102065
 30
0.0
 40
0.377857
100
AcDbArc
 50
311.8985349999999
 51
48.10146500000002
  0
ARC
  5
A33
330
2
100
AcDbEntity
  8
ALL
 62
     3
100
AcDbCircle
 10
11.14352217648376
 20
5.901722396102065
 30
0.0
 40
0.377857
100
AcDbArc
 50
311.8985349999999
 51
48.10146500000002
  0
ARC
  5
A34
330
2
100
AcDbEntity
  8
ALL
 62
     3
100
AcDbCircle
 10
11.14352217648376
 20
5.901722396102065
 30
0.0
 40
0.377857
100
AcDbArc
 50
311.8985349999999
 51
48.10146500000002
  0
ARC
  5
A35
330
2
100
AcDbEntity
  8
ALL
 62
     3
100
AcDbCircle
 10
11.14352217648376
 20
5.901722396102065
 30
0.0
 40
0.377857
100
AcDbArc
 50
311.8985349999999
 51
48.10146500000002
  0
LINE
  5
A36
330
2
100
AcDbEntity
  8
ALL
 62
     3
100
AcDbLine
 10
11.39586017648377
 20
6.182972396102065
 30
0.0
 11
11.39586017648377
 21
6.245472396102065
 31
0.0
  0
LINE
  5
A37
330
2
100
AcDbEntity
  8
ALL
 62
     3
100
AcDbLine
 10
11.39586017648377
 20
6.182972396102065
 30
0.0
 11
11.39586017648377
 21
6.245472396102065
 31
0.0
  0
LINE
  5
A38
330
2
100
AcDbEntity
  8
ALL
 62
     3
100
AcDbLine
 10
11.39586017648377
 20
6.182972396102065
 30
0.0
 11
11.39586017648377
 21
6.245472396102065
 31
0.0
  0
LINE
  5
A39
330
2
100
AcDbEntity
  8
ALL
 62
     3
100
AcDbLine
 10
11.39586017648377
 20
6.182972396102065
 30
0.0
 11
11.39586017648377
 21
6.245472396102065
 31
0.0
  0
LINE
  5
A3A
330
2
100
AcDbEntity
  8
ALL
 62
     3
100
AcDbLine
 10
11.39586017648377
 20
6.182972396102065
 30
0.0
 11
11.39586017648377
 21
6.245472396102065
 31
0.0
  0
LINE
  5
A3B
330
2
100
AcDbEntity
  8
ALL
 62
     3
100
AcDbLine
 10
11.39586017648377
 20
6.182972396102065
 30
0.0
 11
11.39586017648377
 21
6.245472396102065
 31
0.0
  0
LINE
  5
A3C
330
2
100
AcDbEntity
  8
ALL
 62
     3
100
AcDbLine
 10
11.39586017648377
 20
6.182972396102065
 30
0.0
 11
11.39586017648377
 21
6.245472396102065
 31
0.0
  0
LINE
  5
A3D
330
2
100
AcDbEntity
  8
ALL
 62
     3
100
AcDbLine
 10
11.39586017648377
 20
6.182972396102065
 30
0.0
 11
11.39586017648377
 21
6.245472396102065
 31
0.0
  0
LINE
  5
A3E
330
2
100
AcDbEntity
  8
ALL
 62
     3
100
AcDbLine
 10
11.39586017648377
 20
6.182972396102065
 30
0.0
 11
11.39586017648377
 21
6.245472396102065
 31
0.0
  0
LINE
  5
A3F
330
2
100
AcDbEntity
  8
ALL
 62
     3
100
AcDbLine
 10
11.39586017648377
 20
6.182972396102065
 30
0.0
 11
11.39586017648377
 21
6.245472396102065
 31
0.0
  0
LINE
  5
A40
330
2
100
AcDbEntity
  8
ALL
 62
     3
100
AcDbLine
 10
11.39586017648377
 20
6.182972396102065
 30
0.0
 11
11.39586017648377
 21
6.245472396102065
 31
0.0
  0
LINE
  5
A41
330
2
100
AcDbEntity
  8
ALL
 62
     3
100
AcDbLine
 10
11.39586017648377
 20
6.182972396102065
 30
0.0
 11
11.39586017648377
 21
6.245472396102065
 31
0.0
  0
LINE
  5
A42
330
2
100
AcDbEntity
  8
ALL
 62
     3
100
AcDbLine
 10
11.39586017648377
 20
6.182972396102065
 30
0.0
 11
11.39586017648377
 21
6.245472396102065
 31
0.0
  0
LINE
  5
A43
330
2
100
AcDbEntity
  8
ALL
 62
     3
100
AcDbLine
 10
11.39586017648377
 20
6.182972396102065
 30
0.0
 11
11.39586017648377
 21
6.245472396102065
 31
0.0
  0
LINE
  5
A44
330
2
100
AcDbEntity
  8
ALL
 62
     3
100
AcDbLine
 10
11.39586017648377
 20
6.182972396102065
 30
0.0
 11
11.39586017648377
 21
6.245472396102065
 31
0.0
  0
LINE
  5
A45
330
2
100
AcDbEntity
  8
ALL
 62
     3
100
AcDbLine
 10
11.39586017648377
 20
6.182972396102065
 30
0.0
 11
11.39586017648377
 21
6.245472396102065
 31
0.0
  0
LINE
  5
A46
330
2
100
AcDbEntity
  8
ALL
 62
     3
100
AcDbLine
 10
11.39586017648377
 20
6.182972396102065
 30
0.0
 11
11.39586017648377
 21
6.245472396102065
 31
0.0
  0
LINE
  5
A47
330
2
100
AcDbEntity
  8
ALL
 62
     3
100
AcDbLine
 10
11.39586017648377
 20
6.182972396102065
 30
0.0
 11
11.39586017648377
 21
6.245472396102065
 31
0.0
  0
LINE
  5
A48
330
2
100
AcDbEntity
  8
ALL
 62
     3
100
AcDbLine
 10
11.39586017648377
 20
6.182972396102065
 30
0.0
 11
11.39586017648377
 21
6.245472396102065
 31
0.0
  0
LINE
  5
A49
330
2
100
AcDbEntity
  8
ALL
 62
     3
100
AcDbLine
 10
11.39586017648377
 20
6.182972396102065
 30
0.0
 11
11.39586017648377
 21
6.245472396102065
 31
0.0
  0
LINE
  5
A4A
330
2
100
AcDbEntity
  8
ALL
 62
     3
100
AcDbLine
 10
11.39586017648377
 20
6.182972396102065
 30
0.0
 11
11.39586017648377
 21
6.245472396102065
 31
0.0
  0
LINE
  5
A4B
330
2
100
AcDbEntity
  8
ALL
 62
     3
100
AcDbLine
 10
11.39586017648377
 20
6.182972396102065
 30
0.0
 11
11.39586017648377
 21
6.245472396102065
 31
0.0
  0
LINE
  5
A4C
330
2
100
AcDbEntity
  8
ALL
 62
     3
100
AcDbLine
 10
11.39586017648377
 20
6.182972396102065
 30
0.0
 11
11.39586017648377
 21
6.245472396102065
 31
0.0
  0
LINE
  5
A4D
330
2
100
AcDbEntity
  8
ALL
 62
     3
100
AcDbLine
 10
11.39586017648377
 20
6.182972396102065
 30
0.0
 11
11.39586017648377
 21
6.245472396102065
 31
0.0
  0
ARC
  5
A4E
330
2
100
AcDbEntity
  8
ALL
 62
     3
100
AcDbCircle
 10
10.45948908764595
 20
7.123760389872535
 30
0.0
 40
0.4693593628044213
100
AcDbArc
 50
354.8956519810047
 51
29.18711295208549
  0
ARC
  5
A4F
330
2
100
AcDbEntity
  8
ALL
 62
     3
100
AcDbCircle
 10
10.45948917648376
 20
7.123760396102062
 30
0.0
 40
0.4693590000000001
100
AcDbArc
 50
354.895652
 51
29.18711299999996
  0
ARC
  5
A50
330
2
100
AcDbEntity
  8
ALL
 62
     3
100
AcDbCircle
 10
10.45948908764595
 20
7.123760389872535
 30
0.0
 40
0.4693593628044213
100
AcDbArc
 50
354.8956519810047
 51
29.18711295208549
  0
ARC
  5
A51
330
2
100
AcDbEntity
  8
ALL
 62
     3
100
AcDbCircle
 10
10.45948917648376
 20
7.123760396102062
 30
0.0
 40
0.4693590000000001
100
AcDbArc
 50
354.895652
 51
29.18711299999996
  0
ARC
  5
A52
330
2
100
AcDbEntity
  8
ALL
 62
     3
100
AcDbCircle
 10
11.85228451666971
 20
7.01346186417158
 30
0.0
 40
0.8821745593242569
100
AcDbArc
 50
175.5439704831682
 51
217.7058254705359
  0
ARC
  5
A53
330
2
100
AcDbEntity
  8
ALL
 62
     3
100
AcDbCircle
 10
11.85228417648377
 20
7.013461396102064
 30
0.0
 40
0.8821749999999999
100
AcDbArc
 50
175.5439699999999
 51
217.7058249999999
  0
ARC
  5
A54
330
2
100
AcDbEntity
  8
ALL
 62
     3
100
AcDbCircle
 10
11.85228417648377
 20
7.013461396102064
 30
0.0
 40
0.8821749999999999
100
AcDbArc
 50
175.5439699999999
 51
217.7058249999999
  0
ARC
  5
A55
330
2
100
AcDbEntity
  8
ALL
 62
     3
100
AcDbCircle
 10
11.85228417648377
 20
7.013461396102064
 30
0.0
 40
0.8821749999999999
100
AcDbArc
 50
175.5439699999999
 51
217.7058249999999
  0
ARC
  5
A56
330
2
100
AcDbEntity
  8
ALL
 62
     3
100
AcDbCircle
 10
11.85228417648377
 20
7.013461396102064
 30
0.0
 40
0.8821749999999999
100
AcDbArc
 50
175.5439699999999
 51
217.7058249999999
  0
ARC
  5
A57
330
2
100
AcDbEntity
  8
ALL
 62
     3
100
AcDbCircle
 10
11.85228417648377
 20
7.013461396102064
 30
0.0
 40
0.8821749999999999
100
AcDbArc
 50
175.5439699999999
 51
217.7058249999999
  0
ARC
  5
A58
330
2
100
AcDbEntity
  8
ALL
 62
     3
100
AcDbCircle
 10
11.85228417648377
 20
7.013461396102064
 30
0.0
 40
0.8821749999999999
100
AcDbArc
 50
175.5439699999999
 51
217.7058249999999
  0
ARC
  5
A59
330
2
100
AcDbEntity
  8
ALL
 62
     3
100
AcDbCircle
 10
11.85228417648377
 20
7.013461396102064
 30
0.0
 40
0.8821749999999999
100
AcDbArc
 50
175.5439699999999
 51
217.7058249999999
  0
ARC
  5
A5A
330
2
100
AcDbEntity
  8
ALL
 62
     3
100
AcDbCircle
 10
11.85228417648377
 20
7.013461396102064
 30
0.0
 40
0.8821749999999999
100
AcDbArc
 50
175.5439699999999
 51
217.7058249999999
  0
ARC
  5
A5B
330
2
100
AcDbEntity
  8
ALL
 62
     3
100
AcDbCircle
 10
11.85228417648377
 20
7.013461396102064
 30
0.0
 40
0.8821749999999999
100
AcDbArc
 50
175.5439699999999
 51
217.7058249999999
  0
ARC
  5
A5C
330
2
100
AcDbEntity
  8
ALL
 62
     3
100
AcDbCircle
 10
11.85228417648377
 20
7.013461396102064
 30
0.0
 40
0.8821749999999999
100
AcDbArc
 50
175.5439699999999
 51
217.7058249999999
  0
ARC
  5
A5D
330
2
100
AcDbEntity
  8
ALL
 62
     3
100
AcDbCircle
 10
11.85228417648377
 20
7.013461396102064
 30
0.0
 40
0.8821749999999999
100
AcDbArc
 50
175.5439699999999
 51
217.7058249999999
  0
ARC
  5
A5E
330
2
100
AcDbEntity
  8
ALL
 62
     3
100
AcDbCircle
 10
11.85228451666971
 20
7.01346186417158
 30
0.0
 40
0.8821745593242569
100
AcDbArc
 50
175.5439704831682
 51
217.7058254705359
  0
ARC
  5
A5F
330
2
100
AcDbEntity
  8
ALL
 62
     3
100
AcDbCircle
 10
11.85228417648377
 20
7.013461396102064
 30
0.0
 40
0.8821749999999999
100
AcDbArc
 50
175.5439699999999
 51
217.7058249999999
  0
ARC
  5
A60
330
2
100
AcDbEntity
  8
ALL
 62
     3
100
AcDbCircle
 10
11.85228417648377
 20
7.013461396102064
 30
0.0
 40
0.8821749999999999
100
AcDbArc
 50
175.5439699999999
 51
217.7058249999999
  0
ARC
  5
A61
330
2
100
AcDbEntity
  8
ALL
 62
     3
100
AcDbCircle
 10
11.85228417648377
 20
7.013461396102064
 30
0.0
 40
0.8821749999999999
100
AcDbArc
 50
175.5439699999999
 51
217.7058249999999
  0
ARC
  5
A62
330
2
100
AcDbEntity
  8
ALL
 62
     3
100
AcDbCircle
 10
11.85228417648377
 20
7.013461396102064
 30
0.0
 40
0.8821749999999999
100
AcDbArc
 50
175.5439699999999
 51
217.7058249999999
  0
ARC
  5
A63
330
2
100
AcDbEntity
  8
ALL
 62
     3
100
AcDbCircle
 10
11.85228417648377
 20
7.013461396102064
 30
0.0
 40
0.8821749999999999
100
AcDbArc
 50
175.5439699999999
 51
217.7058249999999
  0
ARC
  5
A64
330
2
100
AcDbEntity
  8
ALL
 62
     3
100
AcDbCircle
 10
11.85228417648377
 20
7.013461396102064
 30
0.0
 40
0.8821749999999999
100
AcDbArc
 50
175.5439699999999
 51
217.7058249999999
  0
ARC
  5
A65
330
2
100
AcDbEntity
  8
ALL
 62
     3
100
AcDbCircle
 10
11.85228417648377
 20
7.013461396102064
 30
0.0
 40
0.8821749999999999
100
AcDbArc
 50
175.5439699999999
 51
217.7058249999999
  0
ARC
  5
A66
330
2
100
AcDbEntity
  8
ALL
 62
     3
100
AcDbCircle
 10
11.85228417648377
 20
7.013461396102064
 30
0.0
 40
0.8821749999999999
100
AcDbArc
 50
175.5439699999999
 51
217.7058249999999
  0
ARC
  5
A67
330
2
100
AcDbEntity
  8
ALL
 62
     3
100
AcDbCircle
 10
11.85228417648377
 20
7.013461396102064
 30
0.0
 40
0.8821749999999999
100
AcDbArc
 50
175.5439699999999
 51
217.7058249999999
  0
ARC
  5
A68
330
2
100
AcDbEntity
  8
ALL
 62
     3
100
AcDbCircle
 10
11.85228417648377
 20
7.013461396102064
 30
0.0
 40
0.8821749999999999
100
AcDbArc
 50
175.5439699999999
 51
217.7058249999999
  0
ARC
  5
A69
330
2
100
AcDbEntity
  8
ALL
 62
     3
100
AcDbCircle
 10
11.85228417648377
 20
7.013461396102064
 30
0.0
 40
0.8821749999999999
100
AcDbArc
 50
175.5439699999999
 51
217.7058249999999
  0
LINE
  5
A6A
330
2
100
AcDbEntity
  8
ALL
 62
     3
100
AcDbLine
 10
10.97277654872899
 20
7.08200154207933
 30
0.0
 11
10.92698711981631
 21
7.08200154207933
 31
0.0
  0
LINE
  5
A6B
330
2
100
AcDbEntity
  8
ALL
 62
     3
100
AcDbLine
 10
10.97277617648376
 20
7.082001396102063
 30
0.0
 11
10.92698717648377
 21
7.082001396102063
 31
0.0
  0
LINE
  5
A6C
330
2
100
AcDbEntity
  8
ALL
 62
     3
100
AcDbLine
 10
10.97277654872899
 20
7.08200154207933
 30
0.0
 11
10.92698711981631
 21
7.08200154207933
 31
0.0
  0
LINE
  5
A6D
330
2
100
AcDbEntity
  8
ALL
 62
     3
100
AcDbLine
 10
10.97277617648376
 20
7.082001396102063
 30
0.0
 11
10.92698717648377
 21
7.082001396102063
 31
0.0
  0
LINE
  5
A6E
330
2
100
AcDbEntity
  8
ALL
 62
     3
100
AcDbLine
 10
10.97277654872899
 20
7.08200154207933
 30
0.0
 11
10.97277654872899
 21
7.08200154207933
 31
0.0
  0
LINE
  5
A6F
330
2
100
AcDbEntity
  8
ALL
 62
     3
100
AcDbLine
 10
10.97277654872899
 20
7.08200154207933
 30
0.0
 11
10.97277654872899
 21
7.08200154207933
 31
0.0
  0
LINE
  5
A70
330
2
100
AcDbEntity
  8
ALL
 62
     3
100
AcDbLine
 10
10.97277617648376
 20
7.082001396102063
 30
0.0
 11
10.97277617648376
 21
7.082001396102063
 31
0.0
  0
LINE
  5
A71
330
2
100
AcDbEntity
  8
ALL
 62
     3
100
AcDbLine
 10
10.97277617648376
 20
7.082001396102063
 30
0.0
 11
10.97277617648376
 21
7.082001396102063
 31
0.0
  0
LINE
  5
A72
330
2
100
AcDbEntity
  8
ALL
 62
     3
100
AcDbLine
 10
10.97277617648376
 20
7.082001396102063
 30
0.0
 11
10.97277617648376
 21
7.082001396102063
 31
0.0
  0
LINE
  5
A73
330
2
100
AcDbEntity
  8
ALL
 62
     3
100
AcDbLine
 10
10.97277617648376
 20
7.082001396102063
 30
0.0
 11
10.97277617648376
 21
7.082001396102063
 31
0.0
  0
LINE
  5
A74
330
2
100
AcDbEntity
  8
ALL
 62
     3
100
AcDbLine
 10
10.97277617648376
 20
7.082001396102063
 30
0.0
 11
10.97277617648376
 21
7.082001396102063
 31
0.0
  0
LINE
  5
A75
330
2
100
AcDbEntity
  8
ALL
 62
     3
100
AcDbLine
 10
10.97277617648376
 20
7.082001396102063
 30
0.0
 11
10.97277617648376
 21
7.082001396102063
 31
0.0
  0
LINE
  5
A76
330
2
100
AcDbEntity
  8
ALL
 62
     3
100
AcDbLine
 10
10.97277617648376
 20
7.082001396102063
 30
0.0
 11
10.97277617648376
 21
7.082001396102063
 31
0.0
  0
LINE
  5
A77
330
2
100
AcDbEntity
  8
ALL
 62
     3
100
AcDbLine
 10
10.97277617648376
 20
7.082001396102063
 30
0.0
 11
10.97277617648376
 21
7.082001396102063
 31
0.0
  0
LINE
  5
A78
330
2
100
AcDbEntity
  8
ALL
 62
     3
100
AcDbLine
 10
10.97277617648376
 20
7.082001396102063
 30
0.0
 11
10.97277617648376
 21
7.082001396102063
 31
0.0
  0
LINE
  5
A79
330
2
100
AcDbEntity
  8
ALL
 62
     3
100
AcDbLine
 10
10.97277617648376
 20
7.082001396102063
 30
0.0
 11
10.97277617648376
 21
7.082001396102063
 31
0.0
  0
LINE
  5
A7A
330
2
100
AcDbEntity
  8
ALL
 62
     3
100
AcDbLine
 10
10.97277617648376
 20
7.082001396102063
 30
0.0
 11
10.97277617648376
 21
7.082001396102063
 31
0.0
  0
LINE
  5
A7B
330
2
100
AcDbEntity
  8
ALL
 62
     3
100
AcDbLine
 10
10.97277617648376
 20
7.082001396102063
 30
0.0
 11
10.97277617648376
 21
7.082001396102063
 31
0.0
  0
LINE
  5
A7C
330
2
100
AcDbEntity
  8
ALL
 62
     3
100
AcDbLine
 10
10.97277617648376
 20
7.082001396102063
 30
0.0
 11
10.97277617648376
 21
7.082001396102063
 31
0.0
  0
LINE
  5
A7D
330
2
100
AcDbEntity
  8
ALL
 62
     3
100
AcDbLine
 10
10.97277617648376
 20
7.082001396102063
 30
0.0
 11
10.97277617648376
 21
7.082001396102063
 31
0.0
  0
LINE
  5
A7E
330
2
100
AcDbEntity
  8
ALL
 62
     3
100
AcDbLine
 10
10.97277617648376
 20
7.082001396102063
 30
0.0
 11
10.97277617648376
 21
7.082001396102063
 31
0.0
  0
LINE
  5
A7F
330
2
100
AcDbEntity
  8
ALL
 62
     3
100
AcDbLine
 10
10.97277617648376
 20
7.082001396102063
 30
0.0
 11
10.97277617648376
 21
7.082001396102063
 31
0.0
  0
LINE
  5
A80
330
2
100
AcDbEntity
  8
ALL
 62
     3
100
AcDbLine
 10
10.97277617648376
 20
7.082001396102063
 30
0.0
 11
10.97277617648376
 21
7.082001396102063
 31
0.0
  0
LINE
  5
A81
330
2
100
AcDbEntity
  8
ALL
 62
     3
100
AcDbLine
 10
10.97277617648376
 20
7.082001396102063
 30
0.0
 11
10.97277617648376
 21
7.082001396102063
 31
0.0
  0
LINE
  5
A82
330
2
100
AcDbEntity
  8
ALL
 62
     3
100
AcDbLine
 10
10.97277617648376
 20
7.082001396102063
 30
0.0
 11
10.97277617648376
 21
7.082001396102063
 31
0.0
  0
LINE
  5
A83
330
2
100
AcDbEntity
  8
ALL
 62
     3
100
AcDbLine
 10
10.97277617648376
 20
7.082001396102063
 30
0.0
 11
10.97277617648376
 21
7.082001396102063
 31
0.0
  0
LINE
  5
A84
330
2
100
AcDbEntity
  8
ALL
 62
     3
100
AcDbLine
 10
10.97277617648376
 20
7.082001396102063
 30
0.0
 11
10.97277617648376
 21
7.082001396102063
 31
0.0
  0
LINE
  5
A85
330
2
100
AcDbEntity
  8
ALL
 62
     3
100
AcDbLine
 10
10.97277617648376
 20
7.082001396102063
 30
0.0
 11
10.97277617648376
 21
7.082001396102063
 31
0.0
  0
LINE
  5
A86
330
2
100
AcDbEntity
  8
ALL
 62
     3
100
AcDbLine
 10
10.97277654872899
 20
7.08200154207933
 30
0.0
 11
10.97277654872899
 21
7.08200154207933
 31
0.0
  0
LINE
  5
A87
330
2
100
AcDbEntity
  8
ALL
 62
     3
100
AcDbLine
 10
10.97277654872899
 20
7.08200154207933
 30
0.0
 11
10.97277654872899
 21
7.08200154207933
 31
0.0
  0
LINE
  5
A88
330
2
100
AcDbEntity
  8
ALL
 62
     3
100
AcDbLine
 10
10.97277617648376
 20
7.082001396102063
 30
0.0
 11
10.97277617648376
 21
7.082001396102063
 31
0.0
  0
LINE
  5
A89
330
2
100
AcDbEntity
  8
ALL
 62
     3
100
AcDbLine
 10
10.97277617648376
 20
7.082001396102063
 30
0.0
 11
10.97277617648376
 21
7.082001396102063
 31
0.0
  0
LINE
  5
A8A
330
2
100
AcDbEntity
  8
ALL
 62
     3
100
AcDbLine
 10
10.97277617648376
 20
7.082001396102063
 30
0.0
 11
10.97277617648376
 21
7.082001396102063
 31
0.0
  0
LINE
  5
A8B
330
2
100
AcDbEntity
  8
ALL
 62
     3
100
AcDbLine
 10
10.97277617648376
 20
7.082001396102063
 30
0.0
 11
10.97277617648376
 21
7.082001396102063
 31
0.0
  0
LINE
  5
A8C
330
2
100
AcDbEntity
  8
ALL
 62
     3
100
AcDbLine
 10
10.97277617648376
 20
7.082001396102063
 30
0.0
 11
10.97277617648376
 21
7.082001396102063
 31
0.0
  0
LINE
  5
A8D
330
2
100
AcDbEntity
  8
ALL
 62
     3
100
AcDbLine
 10
10.97277617648376
 20
7.082001396102063
 30
0.0
 11
10.97277617648376
 21
7.082001396102063
 31
0.0
  0
LINE
  5
A8E
330
2
100
AcDbEntity
  8
ALL
 62
     3
100
AcDbLine
 10
10.97277617648376
 20
7.082001396102063
 30
0.0
 11
10.97277617648376
 21
7.082001396102063
 31
0.0
  0
LINE
  5
A8F
330
2
100
AcDbEntity
  8
ALL
 62
     3
100
AcDbLine
 10
10.97277617648376
 20
7.082001396102063
 30
0.0
 11
10.97277617648376
 21
7.082001396102063
 31
0.0
  0
LINE
  5
A90
330
2
100
AcDbEntity
  8
ALL
 62
     3
100
AcDbLine
 10
10.97277617648376
 20
7.082001396102063
 30
0.0
 11
10.97277617648376
 21
7.082001396102063
 31
0.0
  0
LINE
  5
A91
330
2
100
AcDbEntity
  8
ALL
 62
     3
100
AcDbLine
 10
10.97277617648376
 20
7.082001396102063
 30
0.0
 11
10.97277617648376
 21
7.082001396102063
 31
0.0
  0
LINE
  5
A92
330
2
100
AcDbEntity
  8
ALL
 62
     3
100
AcDbLine
 10
10.97277617648376
 20
7.082001396102063
 30
0.0
 11
10.97277617648376
 21
7.082001396102063
 31
0.0
  0
LINE
  5
A93
330
2
100
AcDbEntity
  8
ALL
 62
     3
100
AcDbLine
 10
10.97277617648376
 20
7.082001396102063
 30
0.0
 11
10.97277617648376
 21
7.082001396102063
 31
0.0
  0
LINE
  5
A94
330
2
100
AcDbEntity
  8
ALL
 62
     3
100
AcDbLine
 10
10.97277617648376
 20
7.082001396102063
 30
0.0
 11
10.97277617648376
 21
7.082001396102063
 31
0.0
  0
LINE
  5
A95
330
2
100
AcDbEntity
  8
ALL
 62
     3
100
AcDbLine
 10
10.97277617648376
 20
7.082001396102063
 30
0.0
 11
10.97277617648376
 21
7.082001396102063
 31
0.0
  0
LINE
  5
A96
330
2
100
AcDbEntity
  8
ALL
 62
     3
100
AcDbLine
 10
10.97277617648376
 20
7.082001396102063
 30
0.0
 11
10.97277617648376
 21
7.082001396102063
 31
0.0
  0
LINE
  5
A97
330
2
100
AcDbEntity
  8
ALL
 62
     3
100
AcDbLine
 10
10.97277617648376
 20
7.082001396102063
 30
0.0
 11
10.97277617648376
 21
7.082001396102063
 31
0.0
  0
LINE
  5
A98
330
2
100
AcDbEntity
  8
ALL
 62
     3
100
AcDbLine
 10
10.97277617648376
 20
7.082001396102063
 30
0.0
 11
10.97277617648376
 21
7.082001396102063
 31
0.0
  0
LINE
  5
A99
330
2
100
AcDbEntity
  8
ALL
 62
     3
100
AcDbLine
 10
10.97277617648376
 20
7.082001396102063
 30
0.0
 11
10.97277617648376
 21
7.082001396102063
 31
0.0
  0
LINE
  5
A9A
330
2
100
AcDbEntity
  8
ALL
 62
     3
100
AcDbLine
 10
10.97277617648376
 20
7.082001396102063
 30
0.0
 11
10.97277617648376
 21
7.082001396102063
 31
0.0
  0
LINE
  5
A9B
330
2
100
AcDbEntity
  8
ALL
 62
     3
100
AcDbLine
 10
10.97277617648376
 20
7.082001396102063
 30
0.0
 11
10.97277617648376
 21
7.082001396102063
 31
0.0
  0
LINE
  5
A9C
330
2
100
AcDbEntity
  8
ALL
 62
     3
100
AcDbLine
 10
10.97277617648376
 20
7.082001396102063
 30
0.0
 11
10.97277617648376
 21
7.082001396102063
 31
0.0
  0
LINE
  5
A9D
330
2
100
AcDbEntity
  8
ALL
 62
     3
100
AcDbLine
 10
10.97277617648376
 20
7.082001396102063
 30
0.0
 11
10.97277617648376
 21
7.082001396102063
 31
0.0
  0
LINE
  5
A9E
330
2
100
AcDbEntity
  8
ALL
 62
     3
100
AcDbLine
 10
11.2099233856394
 20
6.473917301845068
 30
0.0
 11
11.15434209899986
 21
6.473917301845068
 31
0.0
  0
LINE
  5
A9F
330
2
100
AcDbEntity
  8
ALL
 62
     3
100
AcDbLine
 10
11.20992317648376
 20
6.473917396102057
 30
0.0
 11
11.15434217648376
 21
6.473917396102057
 31
0.0
  0
LINE
  5
AA0
330
2
100
AcDbEntity
  8
ALL
 62
     3
100
AcDbLine
 10
11.20992317648376
 20
6.473917396102057
 30
0.0
 11
11.15434217648376
 21
6.473917396102057
 31
0.0
  0
LINE
  5
AA1
330
2
100
AcDbEntity
  8
ALL
 62
     3
100
AcDbLine
 10
11.20992317648376
 20
6.473917396102057
 30
0.0
 11
11.15434217648376
 21
6.473917396102057
 31
0.0
  0
LINE
  5
AA2
330
2
100
AcDbEntity
  8
ALL
 62
     3
100
AcDbLine
 10
11.20992317648376
 20
6.473917396102057
 30
0.0
 11
11.15434217648376
 21
6.473917396102057
 31
0.0
  0
LINE
  5
AA3
330
2
100
AcDbEntity
  8
ALL
 62
     3
100
AcDbLine
 10
11.20992317648376
 20
6.473917396102057
 30
0.0
 11
11.15434217648376
 21
6.473917396102057
 31
0.0
  0
LINE
  5
AA4
330
2
100
AcDbEntity
  8
ALL
 62
     3
100
AcDbLine
 10
11.20992317648376
 20
6.473917396102057
 30
0.0
 11
11.15434217648376
 21
6.473917396102057
 31
0.0
  0
LINE
  5
AA5
330
2
100
AcDbEntity
  8
ALL
 62
     3
100
AcDbLine
 10
11.20992317648376
 20
6.473917396102057
 30
0.0
 11
11.15434217648376
 21
6.473917396102057
 31
0.0
  0
LINE
  5
AA6
330
2
100
AcDbEntity
  8
ALL
 62
     3
100
AcDbLine
 10
11.20992317648376
 20
6.473917396102057
 30
0.0
 11
11.15434217648376
 21
6.473917396102057
 31
0.0
  0
LINE
  5
AA7
330
2
100
AcDbEntity
  8
ALL
 62
     3
100
AcDbLine
 10
11.20992317648376
 20
6.473917396102057
 30
0.0
 11
11.15434217648376
 21
6.473917396102057
 31
0.0
  0
LINE
  5
AA8
330
2
100
AcDbEntity
  8
ALL
 62
     3
100
AcDbLine
 10
11.20992317648376
 20
6.473917396102057
 30
0.0
 11
11.15434217648376
 21
6.473917396102057
 31
0.0
  0
LINE
  5
AA9
330
2
100
AcDbEntity
  8
ALL
 62
     3
100
AcDbLine
 10
11.20992317648376
 20
6.473917396102057
 30
0.0
 11
11.15434217648376
 21
6.473917396102057
 31
0.0
  0
LINE
  5
AAA
330
2
100
AcDbEntity
  8
ALL
 62
     3
100
AcDbLine
 10
11.2099233856394
 20
6.473917301845068
 30
0.0
 11
11.15434209899986
 21
6.473917301845068
 31
0.0
  0
LINE
  5
AAB
330
2
100
AcDbEntity
  8
ALL
 62
     3
100
AcDbLine
 10
11.20992317648376
 20
6.473917396102057
 30
0.0
 11
11.15434217648376
 21
6.473917396102057
 31
0.0
  0
LINE
  5
AAC
330
2
100
AcDbEntity
  8
ALL
 62
     3
100
AcDbLine
 10
11.20992317648376
 20
6.473917396102057
 30
0.0
 11
11.15434217648376
 21
6.473917396102057
 31
0.0
  0
LINE
  5
AAD
330
2
100
AcDbEntity
  8
ALL
 62
     3
100
AcDbLine
 10
11.20992317648376
 20
6.473917396102057
 30
0.0
 11
11.15434217648376
 21
6.473917396102057
 31
0.0
  0
LINE
  5
AAE
330
2
100
AcDbEntity
  8
ALL
 62
     3
100
AcDbLine
 10
11.20992317648376
 20
6.473917396102057
 30
0.0
 11
11.15434217648376
 21
6.473917396102057
 31
0.0
  0
LINE
  5
AAF
330
2
100
AcDbEntity
  8
ALL
 62
     3
100
AcDbLine
 10
11.20992317648376
 20
6.473917396102057
 30
0.0
 11
11.15434217648376
 21
6.473917396102057
 31
0.0
  0
LINE
  5
AB0
330
2
100
AcDbEntity
  8
ALL
 62
     3
100
AcDbLine
 10
11.20992317648376
 20
6.473917396102057
 30
0.0
 11
11.15434217648376
 21
6.473917396102057
 31
0.0
  0
LINE
  5
AB1
330
2
100
AcDbEntity
  8
ALL
 62
     3
100
AcDbLine
 10
11.20992317648376
 20
6.473917396102057
 30
0.0
 11
11.15434217648376
 21
6.473917396102057
 31
0.0
  0
LINE
  5
AB2
330
2
100
AcDbEntity
  8
ALL
 62
     3
100
AcDbLine
 10
11.20992317648376
 20
6.473917396102057
 30
0.0
 11
11.15434217648376
 21
6.473917396102057
 31
0.0
  0
LINE
  5
AB3
330
2
100
AcDbEntity
  8
ALL
 62
     3
100
AcDbLine
 10
11.20992317648376
 20
6.473917396102057
 30
0.0
 11
11.15434217648376
 21
6.473917396102057
 31
0.0
  0
LINE
  5
AB4
330
2
100
AcDbEntity
  8
ALL
 62
     3
100
AcDbLine
 10
11.20992317648376
 20
6.473917396102057
 30
0.0
 11
11.15434217648376
 21
6.473917396102057
 31
0.0
  0
LINE
  5
AB5
330
2
100
AcDbEntity
  8
ALL
 62
     3
100
AcDbLine
 10
11.20992317648376
 20
6.473917396102057
 30
0.0
 11
11.15434217648376
 21
6.473917396102057
 31
0.0
  0
ARC
  5
AB6
330
2
100
AcDbEntity
  8
ALL
 62
     3
100
AcDbCircle
 10
11.14275923986863
 20
7.506262727936507
 30
0.0
 40
0.3136904050257552
100
AcDbArc
 50
170.5118857210901
 51
209.3206154876753
  0
ARC
  5
AB7
330
2
100
AcDbEntity
  8
ALL
 62
     3
100
AcDbCircle
 10
11.14275917648377
 20
7.506262396102064
 30
0.0
 40
0.31369
100
AcDbArc
 50
170.5118859999999
 51
209.320615
  0
LINE
  5
AB8
330
2
100
AcDbEntity
  8
ALL
 62
     3
100
AcDbLine
 10
10.70836017648377
 20
7.557972396102064
 30
0.0
 11
10.83336017648377
 21
7.557972396102064
 31
0.0
  0
LINE
  5
AB9
330
2
100
AcDbEntity
  8
ALL
 62
     3
100
AcDbLine
 10
10.70836017648377
 20
7.557972396102064
 30
0.0
 11
10.83336017648377
 21
7.557972396102064
 31
0.0
  0
LINE
  5
ABA
330
2
100
AcDbEntity
  8
ALL
 62
     3
100
AcDbLine
 10
10.70836017648377
 20
7.557972396102064
 30
0.0
 11
10.83336017648377
 21
7.557972396102064
 31
0.0
  0
LINE
  5
ABB
330
2
100
AcDbEntity
  8
ALL
 62
     3
100
AcDbLine
 10
10.70836017648377
 20
7.557972396102064
 30
0.0
 11
10.83336017648377
 21
7.557972396102064
 31
0.0
  0
LINE
  5
ABC
330
2
100
AcDbEntity
  8
ALL
 62
     3
100
AcDbLine
 10
10.70836017648377
 20
7.557972396102064
 30
0.0
 11
10.83336017648377
 21
7.557972396102064
 31
0.0
  0
LINE
  5
ABD
330
2
100
AcDbEntity
  8
ALL
 62
     3
100
AcDbLine
 10
10.70836017648377
 20
7.557972396102064
 30
0.0
 11
10.83336017648377
 21
7.557972396102064
 31
0.0
  0
LINE
  5
ABE
330
2
100
AcDbEntity
  8
ALL
 62
     3
100
AcDbLine
 10
10.70836017648377
 20
7.557972396102064
 30
0.0
 11
10.83336017648377
 21
7.557972396102064
 31
0.0
  0
LINE
  5
ABF
330
2
100
AcDbEntity
  8
ALL
 62
     3
100
AcDbLine
 10
10.70836017648377
 20
7.557972396102064
 30
0.0
 11
10.83336017648377
 21
7.557972396102064
 31
0.0
  0
LINE
  5
AC0
330
2
100
AcDbEntity
  8
ALL
 62
     3
100
AcDbLine
 10
10.70836017648377
 20
7.557972396102064
 30
0.0
 11
10.83336017648377
 21
7.557972396102064
 31
0.0
  0
LINE
  5
AC1
330
2
100
AcDbEntity
  8
ALL
 62
     3
100
AcDbLine
 10
10.70836017648377
 20
7.557972396102064
 30
0.0
 11
10.83336017648377
 21
7.557972396102064
 31
0.0
  0
LINE
  5
AC2
330
2
100
AcDbEntity
  8
ALL
 62
     3
100
AcDbLine
 10
10.70836017648377
 20
7.557972396102064
 30
0.0
 11
10.83336017648377
 21
7.557972396102064
 31
0.0
  0
LINE
  5
AC3
330
2
100
AcDbEntity
  8
ALL
 62
     3
100
AcDbLine
 10
10.70836017648377
 20
7.557972396102064
 30
0.0
 11
10.83336017648377
 21
7.557972396102064
 31
0.0
  0
ARC
  5
AC4
330
2
100
AcDbEntity
  8
ALL
 62
     3
100
AcDbCircle
 10
11.14275923986863
 20
7.506262727936507
 30
0.0
 40
0.3136904050257552
100
AcDbArc
 50
170.5118857210901
 51
209.3206154876753
  0
ARC
  5
AC5
330
2
100
AcDbEntity
  8
ALL
 62
     3
100
AcDbCircle
 10
11.14275917648377
 20
7.506262396102064
 30
0.0
 40
0.31369
100
AcDbArc
 50
170.5118859999999
 51
209.320615
  0
LINE
  5
AC6
330
2
100
AcDbEntity
  8
ALL
 62
     3
100
AcDbLine
 10
10.70836017648377
 20
7.557972396102064
 30
0.0
 11
10.83336017648377
 21
7.557972396102064
 31
0.0
  0
LINE
  5
AC7
330
2
100
AcDbEntity
  8
ALL
 62
     3
100
AcDbLine
 10
10.70836017648377
 20
7.557972396102064
 30
0.0
 11
10.83336017648377
 21
7.557972396102064
 31
0.0
  0
LINE
  5
AC8
330
2
100
AcDbEntity
  8
ALL
 62
     3
100
AcDbLine
 10
10.70836017648377
 20
7.557972396102064
 30
0.0
 11
10.83336017648377
 21
7.557972396102064
 31
0.0
  0
LINE
  5
AC9
330
2
100
AcDbEntity
  8
ALL
 62
     3
100
AcDbLine
 10
10.70836017648377
 20
7.557972396102064
 30
0.0
 11
10.83336017648377
 21
7.557972396102064
 31
0.0
  0
LINE
  5
ACA
330
2
100
AcDbEntity
  8
ALL
 62
     3
100
AcDbLine
 10
10.70836017648377
 20
7.557972396102064
 30
0.0
 11
10.83336017648377
 21
7.557972396102064
 31
0.0
  0
LINE
  5
ACB
330
2
100
AcDbEntity
  8
ALL
 62
     3
100
AcDbLine
 10
10.70836017648377
 20
7.557972396102064
 30
0.0
 11
10.83336017648377
 21
7.557972396102064
 31
0.0
  0
LINE
  5
ACC
330
2
100
AcDbEntity
  8
ALL
 62
     3
100
AcDbLine
 10
10.70836017648377
 20
7.557972396102064
 30
0.0
 11
10.83336017648377
 21
7.557972396102064
 31
0.0
  0
LINE
  5
ACD
330
2
100
AcDbEntity
  8
ALL
 62
     3
100
AcDbLine
 10
10.70836017648377
 20
7.557972396102064
 30
0.0
 11
10.83336017648377
 21
7.557972396102064
 31
0.0
  0
LINE
  5
ACE
330
2
100
AcDbEntity
  8
ALL
 62
     3
100
AcDbLine
 10
10.70836017648377
 20
7.557972396102064
 30
0.0
 11
10.83336017648377
 21
7.557972396102064
 31
0.0
  0
LINE
  5
ACF
330
2
100
AcDbEntity
  8
ALL
 62
     3
100
AcDbLine
 10
10.70836017648377
 20
7.557972396102064
 30
0.0
 11
10.83336017648377
 21
7.557972396102064
 31
0.0
  0
LINE
  5
AD0
330
2
100
AcDbEntity
  8
ALL
 62
     3
100
AcDbLine
 10
10.70836017648377
 20
7.557972396102064
 30
0.0
 11
10.83336017648377
 21
7.557972396102064
 31
0.0
  0
LINE
  5
AD1
330
2
100
AcDbEntity
  8
ALL
 62
     3
100
AcDbLine
 10
10.70836017648377
 20
7.557972396102064
 30
0.0
 11
10.83336017648377
 21
7.557972396102064
 31
0.0
  0
TEXT
  5
AD2
330
2
100
AcDbEntity
  8
ALL
 62
     1
100
AcDbText
 10
10.63767142633297
 20
4.794110505944184
 30
0.0
 40
0.125
  1
BWP-7003
 41
1.25
  7
PANROMAN
 72
     1
 11
11.13223365100257
 21
4.794110505944184
 31
0.0
100
AcDbText
  0
TEXT
  5
AD3
330
2
100
AcDbEntity
  8
ALL
 62
     1
100
AcDbText
 10
10.49160865100257
 20
4.649319081751542
 30
0.0
 40
0.075
  1
13/16" x 2 1/4"
 41
1.25
  7
TEST
 72
     1
 11
11.13223365100257
 21
4.649319081751542
 31
0.0
100
AcDbText
  0
TEXT
  5
AD4
330
2
100
AcDbEntity
  8
ALL
 62
     1
100
AcDbText
 10
10.63767142633297
 20
4.794110505944184
 30
0.0
 40
0.125
  1
BWP-7003
 41
1.25
  7
PANROMAN
 72
     1
 11
11.13223365100257
 21
4.794110505944184
 31
0.0
100
AcDbText
  0
TEXT
  5
AD5
330
2
100
AcDbEntity
  8
ALL
 62
     1
100
AcDbText
 10
10.49160865100257
 20
4.649319081751542
 30
0.0
 40
0.075
  1
13/16" x 2 1/4"
 41
1.25
  7
TEST
 72
     1
 11
11.13223365100257
 21
4.649319081751542
 31
0.0
100
AcDbText
  0
VIEWPORT
  5
10F
330
7
100
AcDbEntity
 67
     1
  8
0
100
AcDbViewport
 10
7.329044117647058
 20
4.494742024799509
 30
0.0
 40
14.65808823529411
 41
9.0
 68
     1
 69
     1
 12
7.329044117647058
 22
4.494742024799509
 13
0.0
 23
0.0
 14
0.5
 24
0.5
 15
0.5
 25
0.5
 16
0.0
 26
0.0
 36
1.0
 17
0.0
 27
0.0
 37
0.0
 42
50.0
 43
0.0
 44
0.0
 45
9.0
 50
0.0
 51
0.0
 72
   100
 90
    32800
  1

281
     0
 71
     1
 74
     0
110
0.0
120
0.0
130
0.0
111
1.0
121
0.0
131
0.0
112
0.0
122
1.0
132
0.0
 79
     0
146
0.0
  0
ENDSEC
  0
SECTION
  2
OBJECTS
  0
DICTIONARY
  5
1A
330
0
100
AcDbDictionary
281
     1
  3
ACAD_GROUP
350
18
  3
ACAD_IMAGE_DICT
350
1E2
  3
ACAD_IMAGE_VARS
350
1E3
  3
ACAD_LAYOUT
350
16B
  3
ACAD_MLINESTYLE
350
19
  3
ACAD_PLOTSETTINGS
350
16C
  3
ACAD_PLOTSTYLENAME
350
169
  3
AcDbVariableDictionary
350
475
  3
DWGPROPS
350
172
  0
DICTIONARY
  5
18
102
{ACAD_REACTORS
330
1A
102
}
330
1A
100
AcDbDictionary
281
     1
  0
DICTIONARY
  5
1E2
102
{ACAD_REACTORS
330
1A
102
}
330
1A
100
AcDbDictionary
281
     1
  3
darlin
350
1E4
  3
sc
350
3D3
  0
RASTERVARIABLES
  5
1E3
102
{ACAD_REACTORS
330
1A
102
}
330
1A
100
AcDbRasterVariables
 90
        0
 70
     1
 71
     1
 72
     0
  0
DICTIONARY
  5
16B
102
{ACAD_REACTORS
330
1A
102
}
330
1A
100
AcDbDictionary
281
     1
  3
Layout1
350
16E
  3
Model
350
16D
  0
DICTIONARY
  5
19
102
{ACAD_REACTORS
330
1A
102
}
330
1A
100
AcDbDictionary
281
     1
  3
STANDARD
350
1C
  0
DICTIONARY
  5
16C
102
{ACAD_REACTORS
330
1A
102
}
330
1A
100
AcDbDictionary
281
     1
  0
ACDBDICTIONARYWDFLT
  5
169
102
{ACAD_REACTORS
330
1A
102
}
330
1A
100
AcDbDictionary
281
     1
  3
Normal
350
16A
100
AcDbDictionaryWithDefault
340
16A
  0
DICTIONARY
  5
475
102
{ACAD_REACTORS
330
1A
102
}
330
1A
100
AcDbDictionary
281
     1
  3
DIMASSOC
350
476
  0
XRECORD
  5
172
102
{ACAD_REACTORS
330
1A
102
}
330
1A
100
AcDbXrecord
280
     1
  1
DWGPROPS COOKIE
  2

  3

  4

  6

  7

  8
Benson Wood Products
  9

300
=
301
=
302
=
303
=
304
=
305
=
306
=
307
=
308
=
309
=
 40
0.1320853009259259
 41
2451257.51637963
 42
2453236.309322916
  1

 90
        0
  0
IMAGEDEF
  5
1E4
102
{ACAD_REACTORS
330
1E2
102
}
330
1E2
100
AcDbRasterImageDef
 90
        0
  1
C:\AutoCAD 2000i\scans\darlin.bmp
 10
661.0
 20
624.0
 11
0.0846668355628098
 21
0.0846668355628098
280
     1
281
     2
  0
IMAGEDEF
  5
3D3
102
{ACAD_REACTORS
330
1E2
102
}
330
1E2
100
AcDbRasterImageDef
 90
        0
  1
C:\AutoCAD 2000i\scans\sc.bmp
 10
1285.0
 20
1897.0
 11
0.0423334177814049
 21
0.0423334177814049
280
     1
281
     2
  0
LAYOUT
  5
16E
102
{ACAD_REACTORS
330
16B
102
}
330
16B
100
AcDbPlotSettings
  1

  2
\\Bwp-cnc\HP LaserJet 6P
  4

  6

 40
0.0
 41
0.0
 42
0.0
 43
0.0
 44
0.0
 45
0.0
 46
0.0
 47
0.0
 48
0.0
 49
0.0
140
0.0
141
0.0
142
1.0
143
1.0
 70
   688
 72
     0
 73
     0
 74
     5
  7
monochrome.ctb
 75
    16
147
1.0
148
0.0
149
0.0
100
AcDbLayout
  1
Layout1
 70
     1
 71
     1
 10
0.0
 20
0.0
 11
12.0
 21
9.0
 12
0.0
 22
0.0
 32
0.0
 14
1.000000000000000E+20
 24
1.000000000000000E+20
 34
1.000000000000000E+20
 15
-1.000000000000000E+20
 25
-1.000000000000000E+20
 35
-1.000000000000000E+20
146
0.0
 13
0.0
 23
0.0
 33
0.0
 16
1.0
 26
0.0
 36
0.0
 17
0.0
 27
1.0
 37
0.0
 76
     0
330
7
331
10F
  0
LAYOUT
  5
16D
102
{ACAD_REACTORS
330
16B
102
}
330
16B
100
AcDbPlotSettings
  1

  2
PrimoPDF
  4
Letter
  6

 40
3.174999952316284
 41
3.174999952316284
 42
3.175003051757812
 43
3.17498779296875
 44
215.8999938964843
 45
279.3999938964843
 46
81.026
 47
97.02799999999999
 48
10.0600076499436
 49
4.569251041115247
140
11.92910643478213
141
7.687055657977012
142
1.0
143
1.0
 70
 11956
 72
     0
 73
     0
 74
     4
  7
monochrome.ctb
 75
    16
147
1.0
148
-255.5241943085674
149
-116.0589764443272
100
AcDbLayout
  1
Model
 70
     1
 71
     0
 10
0.0
 20
0.0
 11
12.0
 21
9.0
 12
0.0
 22
0.0
 32
0.0
 14
0.0
 24
0.0
 34
0.0
 15
0.0
 25
0.0
 35
0.0
146
0.0
 13
0.0
 23
0.0
 33
0.0
 16
1.0
 26
0.0
 36
0.0
 17
0.0
 27
1.0
 37
0.0
 76
     0
330
2
  0
MLINESTYLE
  5
1C
102
{ACAD_REACTORS
330
19
102
}
330
19
100
AcDbMlineStyle
  2
STANDARD
 70
     0
  3

 62
     0
 51
90.0
 52
90.0
 71
     2
 49
0.5
 62
   256
  6
BYLAYER
 49
-0.5
 62
   256
  6
BYLAYER
  0
ACDBPLACEHOLDER
  5
16A
102
{ACAD_REACTORS
330
169
102
}
330
169
  0
DICTIONARYVAR
  5
476
102
{ACAD_REACTORS
330
475
102
}
330
475
100
DictionaryVariables
280
     0
  1
1
  0
ENDSEC
  0
EOF
