  0
SECTION
  2
HEADER
  9
$ACADVER
  1
AC1015
  9
$ACADMAINTVER
 70
    13
  9
$DWGCODEPAGE
  3
ANSI_1252
  9
$INSBASE
 10
0.0
 20
0.0
 30
0.0
  9
$EXTMIN
 10
9.994445840355993
 20
5.094045214065474
 30
-0.0015258207003583
  9
$EXTMAX
 10
11.25054934347345
 20
8.580594431438523
 30
0.0000000349246037
  9
$LIMMIN
 10
0.0
 20
0.0
  9
$LIMMAX
 10
12.0
 20
9.0
  9
$ORTHOMODE
 70
     0
  9
$REGENMODE
 70
     1
  9
$FILLMODE
 70
     1
  9
$QTEXTMODE
 70
     0
  9
$MIRRTEXT
 70
     1
  9
$LTSCALE
 40
1.0
  9
$ATTMODE
 70
     1
  9
$TEXTSIZE
 40
0.2
  9
$TRACEWID
 40
0.05
  9
$TEXTSTYLE
  7
STANDARD
  9
$CLAYER
  8
PROFILE
  9
$CELTYPE
  6
BYLAYER
  9
$CECOLOR
 62
   256
  9
$CELTSCALE
 40
1.0
  9
$DISPSILH
 70
     0
  9
$DIMSCALE
 40
1.0
  9
$DIMASZ
 40
0.18
  9
$DIMEXO
 40
0.0625
  9
$DIMDLI
 40
0.38
  9
$DIMRND
 40
0.0
  9
$DIMDLE
 40
0.0
  9
$DIMEXE
 40
0.18
  9
$DIMTP
 40
0.0
  9
$DIMTM
 40
0.0
  9
$DIMTXT
 40
0.18
  9
$DIMCEN
 40
0.09
  9
$DIMTSZ
 40
0.0
  9
$DIMTOL
 70
     0
  9
$DIMLIM
 70
     0
  9
$DIMTIH
 70
     1
  9
$DIMTOH
 70
     1
  9
$DIMSE1
 70
     0
  9
$DIMSE2
 70
     0
  9
$DIMTAD
 70
     0
  9
$DIMZIN
 70
     0
  9
$DIMBLK
  1

  9
$DIMASO
 70
     1
  9
$DIMSHO
 70
     1
  9
$DIMPOST
  1

  9
$DIMAPOST
  1

  9
$DIMALT
 70
     0
  9
$DIMALTD
 70
     2
  9
$DIMALTF
 40
25.4
  9
$DIMLFAC
 40
1.0
  9
$DIMTOFL
 70
     0
  9
$DIMTVP
 40
0.0
  9
$DIMTIX
 70
     0
  9
$DIMSOXD
 70
     0
  9
$DIMSAH
 70
     0
  9
$DIMBLK1
  1

  9
$DIMBLK2
  1

  9
$DIMSTYLE
  2
STANDARD_WS
  9
$DIMCLRD
 70
     0
  9
$DIMCLRE
 70
     0
  9
$DIMCLRT
 70
     0
  9
$DIMTFAC
 40
1.0
  9
$DIMGAP
 40
0.09
  9
$DIMJUST
 70
     0
  9
$DIMSD1
 70
     0
  9
$DIMSD2
 70
     0
  9
$DIMTOLJ
 70
     1
  9
$DIMTZIN
 70
     0
  9
$DIMALTZ
 70
     0
  9
$DIMALTTZ
 70
     0
  9
$DIMUPT
 70
     0
  9
$DIMDEC
 70
     4
  9
$DIMTDEC
 70
     4
  9
$DIMALTU
 70
     2
  9
$DIMALTTD
 70
     2
  9
$DIMTXSTY
  7
STANDARD
  9
$DIMAUNIT
 70
     0
  9
$DIMADEC
 70
     3
  9
$DIMALTRND
 40
0.0
  9
$DIMAZIN
 70
     0
  9
$DIMDSEP
 70
    46
  9
$DIMATFIT
 70
     3
  9
$DIMFRAC
 70
     0
  9
$DIMLDRBLK
  1

  9
$DIMLUNIT
 70
     2
  9
$DIMLWD
 70
    -2
  9
$DIMLWE
 70
    -2
  9
$DIMTMOVE
 70
     0
  9
$LUNITS
 70
     2
  9
$LUPREC
 70
     4
  9
$SKETCHINC
 40
0.1
  9
$FILLETRAD
 40
0.0
  9
$AUNITS
 70
     0
  9
$AUPREC
 70
     4
  9
$MENU
  1
.
  9
$ELEVATION
 40
0.0
  9
$PELEVATION
 40
0.0
  9
$THICKNESS
 40
0.0
  9
$LIMCHECK
 70
     0
  9
$CHAMFERA
 40
0.5
  9
$CHAMFERB
 40
0.5
  9
$CHAMFERC
 40
1.0
  9
$CHAMFERD
 40
0.0
  9
$SKPOLY
 70
     1
  9
$TDCREATE
 40
2451257.516379630
  9
$TDUCREATE
 40
2451257.724712962
  9
$TDUPDATE
 40
2454939.554891736
  9
$TDUUPDATE
 40
2454939.763225069
  9
$TDINDWG
 40
5.0495828241
  9
$TDUSRTIMER
 40
5.0495828241
  9
$USRTIMER
 70
     1
  9
$ANGBASE
 50
0.0
  9
$ANGDIR
 70
     0
  9
$PDMODE
 70
     0
  9
$PDSIZE
 40
0.0
  9
$PLINEWID
 40
0.0
  9
$SPLFRAME
 70
     0
  9
$SPLINETYPE
 70
     6
  9
$SPLINESEGS
 70
     8
  9
$HANDSEED
  5
902
  9
$SURFTAB1
 70
     6
  9
$SURFTAB2
 70
     6
  9
$SURFTYPE
 70
     6
  9
$SURFU
 70
     6
  9
$SURFV
 70
     6
  9
$UCSBASE
  2

  9
$UCSNAME
  2

  9
$UCSORG
 10
0.0
 20
0.0
 30
0.0
  9
$UCSXDIR
 10
1.0
 20
0.0
 30
0.0
  9
$UCSYDIR
 10
0.0
 20
1.0
 30
0.0
  9
$UCSORTHOREF
  2

  9
$UCSORTHOVIEW
 70
     0
  9
$UCSORGTOP
 10
0.0
 20
0.0
 30
0.0
  9
$UCSORGBOTTOM
 10
0.0
 20
0.0
 30
0.0
  9
$UCSORGLEFT
 10
0.0
 20
0.0
 30
0.0
  9
$UCSORGRIGHT
 10
0.0
 20
0.0
 30
0.0
  9
$UCSORGFRONT
 10
0.0
 20
0.0
 30
0.0
  9
$UCSORGBACK
 10
0.0
 20
0.0
 30
0.0
  9
$PUCSBASE
  2

  9
$PUCSNAME
  2

  9
$PUCSORG
 10
0.0
 20
0.0
 30
0.0
  9
$PUCSXDIR
 10
1.0
 20
0.0
 30
0.0
  9
$PUCSYDIR
 10
0.0
 20
1.0
 30
0.0
  9
$PUCSORTHOREF
  2

  9
$PUCSORTHOVIEW
 70
     0
  9
$PUCSORGTOP
 10
0.0
 20
0.0
 30
0.0
  9
$PUCSORGBOTTOM
 10
0.0
 20
0.0
 30
0.0
  9
$PUCSORGLEFT
 10
0.0
 20
0.0
 30
0.0
  9
$PUCSORGRIGHT
 10
0.0
 20
0.0
 30
0.0
  9
$PUCSORGFRONT
 10
0.0
 20
0.0
 30
0.0
  9
$PUCSORGBACK
 10
0.0
 20
0.0
 30
0.0
  9
$USERI1
 70
     0
  9
$USERI2
 70
     0
  9
$USERI3
 70
     0
  9
$USERI4
 70
     0
  9
$USERI5
 70
     0
  9
$USERR1
 40
0.0
  9
$USERR2
 40
0.0
  9
$USERR3
 40
0.0
  9
$USERR4
 40
0.0
  9
$USERR5
 40
0.0
  9
$WORLDVIEW
 70
     1
  9
$SHADEDGE
 70
     3
  9
$SHADEDIF
 70
    70
  9
$TILEMODE
 70
     1
  9
$MAXACTVP
 70
    48
  9
$PINSBASE
 10
0.0
 20
0.0
 30
0.0
  9
$PLIMCHECK
 70
     0
  9
$PEXTMIN
 10
1.000000000000000E+20
 20
1.000000000000000E+20
 30
1.000000000000000E+20
  9
$PEXTMAX
 10
-1.000000000000000E+20
 20
-1.000000000000000E+20
 30
-1.000000000000000E+20
  9
$PLIMMIN
 10
0.0
 20
0.0
  9
$PLIMMAX
 10
12.0
 20
9.0
  9
$UNITMODE
 70
     0
  9
$VISRETAIN
 70
     0
  9
$PLINEGEN
 70
     0
  9
$PSLTSCALE
 70
     1
  9
$TREEDEPTH
 70
  3020
  9
$CMLSTYLE
  2
STANDARD
  9
$CMLJUST
 70
     0
  9
$CMLSCALE
 40
1.0
  9
$PROXYGRAPHICS
 70
     1
  9
$MEASUREMENT
 70
     0
  9
$CELWEIGHT
370
    -1
  9
$ENDCAPS
280
     0
  9
$JOINSTYLE
280
     0
  9
$LWDISPLAY
290
     0
  9
$INSUNITS
 70
     0
  9
$HYPERLINKBASE
  1

  9
$STYLESHEET
  1
monochrome.ctb
  9
$XEDIT
290
     1
  9
$CEPSNTYPE
380
     0
  9
$PSTYLEMODE
290
     1
  9
$FINGERPRINTGUID
  2
{89108230-6C88-44B9-880F-278BAA3B4DED}
  9
$VERSIONGUID
  2
{B8FDDB39-478F-4C09-B3E9-30057DC1D97A}
  9
$EXTNAMES
290
     1
  9
$PSVPSCALE
 40
0.0
  9
$OLESTARTUP
290
     0
  0
ENDSEC
  0
SECTION
  2
CLASSES
  0
CLASS
  1
DICTIONARYVAR
  2
AcDbDictionaryVar
  3
AutoCAD 2000
 90
        0
280
     0
281
     0
  0
CLASS
  1
ACDBDICTIONARYWDFLT
  2
AcDbDictionaryWithDefault
  3
AutoCAD 2000
 90
        0
280
     0
281
     0
  0
CLASS
  1
ACDBPLACEHOLDER
  2
AcDbPlaceHolder
  3
AutoCAD 2000
 90
        0
280
     0
281
     0
  0
CLASS
  1
LAYOUT
  2
AcDbLayout
  3
AutoCAD 2000
 90
        0
280
     0
281
     0
  0
CLASS
  1
RASTERVARIABLES
  2
AcDbRasterVariables
  3
ISM
 90
        0
280
     0
281
     0
  0
CLASS
  1
IMAGEDEF
  2
AcDbRasterImageDef
  3
ISM
 90
        0
280
     0
281
     0
  0
CLASS
  1
IMAGEDEF_REACTOR
  2
AcDbRasterImageDefReactor
  3
ISM
 90
    32769
280
     0
281
     0
  0
CLASS
  1
IMAGE
  2
AcDbRasterImage
  3
ISM
 90
    32895
280
     0
281
     1
  0
ENDSEC
  0
SECTION
  2
TABLES
  0
TABLE
  2
VPORT
  5
12
330
0
100
AcDbSymbolTable
 70
     4
  0
VPORT
  5
901
330
12
100
AcDbSymbolTableRecord
100
AcDbViewportTableRecord
  2
*Active
 70
     0
 10
0.0
 20
0.0
 11
1.0
 21
1.0
 12
11.65666965457513
 22
6.896860288626281
 13
0.0
 23
0.0
 14
0.5
 24
0.5
 15
0.5
 25
0.5
 16
0.0
 26
0.0
 36
1.0
 17
0.0
 27
0.0
 37
0.0
 40
4.156670168913374
 41
2.05015197568389
 42
50.0
 43
0.0
 44
0.0
 50
0.0
 51
0.0
 71
     0
 72
   100
 73
     1
 74
     1
 75
     0
 76
     0
 77
     0
 78
     0
281
     0
 65
     1
110
0.0
120
0.0
130
0.0
111
1.0
121
0.0
131
0.0
112
0.0
122
1.0
132
0.0
 79
     0
146
0.0
  0
ENDTAB
  0
TABLE
  2
LTYPE
  5
D
330
0
100
AcDbSymbolTable
 70
     1
  0
LTYPE
  5
E
330
D
100
AcDbSymbolTableRecord
100
AcDbLinetypeTableRecord
  2
BYBLOCK
 70
     0
  3

 72
    65
 73
     0
 40
0.0
  0
LTYPE
  5
F
330
D
100
AcDbSymbolTableRecord
100
AcDbLinetypeTableRecord
  2
BYLAYER
 70
     0
  3

 72
    65
 73
     0
 40
0.0
  0
LTYPE
  5
5
330
D
100
AcDbSymbolTableRecord
100
AcDbLinetypeTableRecord
  2
CONTINUOUS
 70
     0
  3
Solid line
 72
    65
 73
     0
 40
0.0
  0
ENDTAB
  0
TABLE
  2
LAYER
  5
A
330
0
100
AcDbSymbolTable
 70
     6
  0
LAYER
  5
4
330
A
100
AcDbSymbolTableRecord
100
AcDbLayerTableRecord
  2
0
 70
     0
 62
     7
  6
CONTINUOUS
370
    -3
390
16A
  0
LAYER
  5
1F
330
A
100
AcDbSymbolTableRecord
100
AcDbLayerTableRecord
  2
PROFILE
 70
     0
 62
     3
  6
CONTINUOUS
370
    -3
390
16A
  0
LAYER
  5
1B
330
A
100
AcDbSymbolTableRecord
100
AcDbLayerTableRecord
  2
DEFPOINTS
 70
     0
 62
     7
  6
CONTINUOUS
290
     0
370
    -3
390
16A
  0
LAYER
  5
27
330
A
100
AcDbSymbolTableRecord
100
AcDbLayerTableRecord
  2
TEXT
 70
     0
 62
     5
  6
CONTINUOUS
370
    -3
390
16A
  0
LAYER
  5
28
330
A
100
AcDbSymbolTableRecord
100
AcDbLayerTableRecord
  2
DIMENSION
 70
     0
 62
     1
  6
CONTINUOUS
370
    -3
390
16A
  0
LAYER
  5
750
330
A
100
AcDbSymbolTableRecord
100
AcDbLayerTableRecord
  2
ALL
 70
     0
 62
     7
  6
CONTINUOUS
370
    -3
390
16A
  0
ENDTAB
  0
TABLE
  2
STYLE
  5
B
330
0
100
AcDbSymbolTable
 70
     3
  0
STYLE
  5
C
330
B
100
AcDbSymbolTableRecord
100
AcDbTextStyleTableRecord
  2
STANDARD
 70
     0
 40
0.0
 41
1.0
 50
0.0
 71
     0
 42
0.2
  3
txt
  4

  0
STYLE
  5
751
330
B
100
AcDbSymbolTableRecord
100
AcDbTextStyleTableRecord
  2
PANROMAN
 70
     0
 40
0.25
 41
1.25
 50
10.0
 71
     0
 42
0.25
  3
par_____.pfb
  4

  0
STYLE
  5
752
330
B
100
AcDbSymbolTableRecord
100
AcDbTextStyleTableRecord
  2
TEST
 70
     0
 40
0.0
 41
1.0
 50
0.0
 71
     0
 42
0.25
  3
ROMANC.SHX
  4

  0
ENDTAB
  0
TABLE
  2
VIEW
  5
10
330
0
100
AcDbSymbolTable
 70
     0
  0
ENDTAB
  0
TABLE
  2
UCS
  5
11
330
0
100
AcDbSymbolTable
 70
     0
  0
ENDTAB
  0
TABLE
  2
APPID
  5
14
330
0
100
AcDbSymbolTable
 70
     2
  0
APPID
  5
15
330
14
100
AcDbSymbolTableRecord
100
AcDbRegAppTableRecord
  2
ACAD
 70
     0
  0
APPID
  5
171
330
14
100
AcDbSymbolTableRecord
100
AcDbRegAppTableRecord
  2
NCPOLARIS_BASE
 70
     0
  0
ENDTAB
  0
TABLE
  2
DIMSTYLE
  5
16
330
0
100
AcDbSymbolTable
 70
     2
100
AcDbDimStyleTable
 71
     1
340
1D
  0
DIMSTYLE
105
1D
330
16
100
AcDbSymbolTableRecord
100
AcDbDimStyleTableRecord
  2
STANDARD_WS
 70
     0
179
     3
340
C
  0
DIMSTYLE
105
39
330
16
100
AcDbSymbolTableRecord
100
AcDbDimStyleTableRecord
  2
STANDARD
 70
     0
340
C
  0
ENDTAB
  0
TABLE
  2
BLOCK_RECORD
  5
1
330
0
100
AcDbSymbolTable
 70
     5
  0
BLOCK_RECORD
  5
2
330
1
100
AcDbSymbolTableRecord
100
AcDbBlockTableRecord
  2
*MODEL_SPACE
340
16D
  0
BLOCK_RECORD
  5
7
330
1
100
AcDbSymbolTableRecord
100
AcDbBlockTableRecord
  2
*PAPER_SPACE
340
16E
  0
BLOCK_RECORD
  5
3A
330
1
100
AcDbSymbolTableRecord
100
AcDbBlockTableRecord
  2
F
340
0
  0
BLOCK_RECORD
  5
8E
330
1
100
AcDbSymbolTableRecord
100
AcDbBlockTableRecord
  2
D
340
0
  0
BLOCK_RECORD
  5
AC
330
1
100
AcDbSymbolTableRecord
100
AcDbBlockTableRecord
  2
CCCROWN
340
0
  0
BLOCK_RECORD
  5
5B6
330
1
100
AcDbSymbolTableRecord
100
AcDbBlockTableRecord
  2
track
340
0
  0
ENDTAB
  0
ENDSEC
  0
SECTION
  2
BLOCKS
  0
BLOCK
  5
3
330
2
100
AcDbEntity
  8
0
100
AcDbBlockBegin
  2
*MODEL_SPACE
 70
     0
 10
0.0
 20
0.0
 30
0.0
  3
*MODEL_SPACE
  1

  0
ENDBLK
  5
6
330
2
100
AcDbEntity
  8
0
100
AcDbBlockEnd
  0
BLOCK
  5
8
330
7
100
AcDbEntity
 67
     1
  8
0
100
AcDbBlockBegin
  2
*PAPER_SPACE
 70
     0
 10
0.0
 20
0.0
 30
0.0
  3
*PAPER_SPACE
  1

  0
ENDBLK
  5
9
330
7
100
AcDbEntity
 67
     1
  8
0
100
AcDbBlockEnd
  0
BLOCK
  5
46
330
3A
100
AcDbEntity
  8
0
100
AcDbBlockBegin
  2
F
 70
     0
 10
0.0
 20
0.0
 30
0.0
  3
F
  1

  0
CIRCLE
  5
3B
330
3A
100
AcDbEntity
  8
0
 62
     7
100
AcDbCircle
 10
0.0410665214247617
 20
-0.016701615976765
 30
0.0
 40
0.0183435
  0
CIRCLE
  5
3C
330
3A
100
AcDbEntity
  8
0
 62
     7
100
AcDbCircle
 10
0.0068044214247617
 20
-0.000720415976765
 30
0.0
 40
0.0194689
  0
CIRCLE
  5
3D
330
3A
100
AcDbEntity
  8
0
 62
     7
100
AcDbCircle
 10
0.0369728214247617
 20
-0.013878215976765
 30
0.0
 40
0.0139466
  0
CIRCLE
  5
3E
330
3A
100
AcDbEntity
  8
0
 62
     7
100
AcDbCircle
 10
0.1138706214247617
 20
0.0152964840232351
 30
0.0
 40
0.0058588
  0
LINE
  5
3F
330
3A
100
AcDbEntity
  8
0
 62
     7
100
AcDbLine
 10
0.1550692214247617
 20
-0.023509915976765
 30
0.0
 11
0.1179283214247617
 21
-0.024196615976765
 31
0.0
  0
LINE
  5
40
330
3A
100
AcDbEntity
  8
0
 62
     7
100
AcDbLine
 10
0.0092153214247617
 20
-0.029690015976765
 30
0.0
 11
0.0457186214247617
 21
-0.028454015976765
 31
0.0
  0
LINE
  5
41
330
3A
100
AcDbEntity
  8
0
 62
     7
100
AcDbLine
 10
0.0088965214247617
 20
-0.020076515976765
 30
0.0
 11
0.0092153214247617
 21
-0.029690015976765
 31
0.0
  0
LINE
  5
42
330
3A
100
AcDbEntity
  8
0
 62
     7
100
AcDbLine
 10
0.0353574214247617
 20
-0.000025415976765
 30
0.0
 11
0.0355168214247617
 21
0.009313484023235
 31
0.0
  0
LINE
  5
43
330
3A
100
AcDbEntity
  8
0
 62
     7
100
AcDbLine
 10
0.1196817214247617
 20
0.0160428840232351
 30
0.0
 11
0.1550692214247617
 21
0.0165922840232351
 31
0.0
  0
LINE
  5
44
330
3A
100
AcDbEntity
  8
0
 62
     7
100
AcDbLine
 10
0.1537940214247617
 20
-0.023235215976765
 30
0.0
 11
0.1526782214247617
 21
0.0172789840232351
 31
0.0
  0
LINE
  5
45
330
3A
100
AcDbEntity
  8
0
 62
     7
100
AcDbLine
 10
0.1142620214247617
 20
0.009450784023235
 30
0.0
 11
0.0363138214247617
 21
0.005193384023235
 31
0.0
  0
ENDBLK
  5
47
330
3A
100
AcDbEntity
  8
0
100
AcDbBlockEnd
  0
BLOCK
  5
9B
330
8E
100
AcDbEntity
  8
0
100
AcDbBlockBegin
  2
D
 70
     0
 10
0.0
 20
0.0
 30
0.0
  3
D
  1

  0
CIRCLE
  5
8F
330
8E
100
AcDbEntity
  8
0
 62
     7
100
AcDbCircle
 10
-0.1168512632442014
 20
0.0286128993414634
 30
0.0
 40
0.0184624
  0
CIRCLE
  5
90
330
8E
100
AcDbEntity
  8
0
 62
     7
100
AcDbCircle
 10
-0.1124979632442014
 20
0.0309464993414634
 30
0.0
 40
0.0254615
  0
CIRCLE
  5
91
330
8E
100
AcDbEntity
  8
0
 62
     7
100
AcDbCircle
 10
-0.1098053632442014
 20
0.0273971993414634
 30
0.0
 40
0.0219833
  0
LINE
  5
92
330
8E
100
AcDbEntity
  8
0
 62
     7
100
AcDbLine
 10
-0.1130932632442014
 20
0.0708659993414634
 30
0.0
 11
-0.1446799632442014
 21
0.0404778993414634
 31
0.0
  0
LINE
  5
93
330
8E
100
AcDbEntity
  8
0
 62
     7
100
AcDbLine
 10
-0.1297586632442014
 20
0.0418136993414634
 30
0.0
 11
-0.1400291632442014
 21
0.0504959993414634
 31
0.0
  0
LINE
  5
94
330
8E
100
AcDbEntity
  8
0
 62
     7
100
AcDbLine
 10
-0.1082487632442014
 20
0.0710328993414634
 30
0.0
 11
-0.0784060632442014
 21
0.0398100993414634
 31
0.0
  0
LINE
  5
95
330
8E
100
AcDbEntity
  8
0
 62
     7
100
AcDbLine
 10
-0.0920669632442015
 20
0.0403824993414634
 30
0.0
 11
-0.0844133632442015
 21
0.0478244993414634
 31
0.0
  0
LINE
  5
96
330
8E
100
AcDbEntity
  8
0
 62
     7
100
AcDbLine
 10
-0.0178829632442014
 20
0.0352731993414634
 30
0.0
 11
-0.0253094632442014
 21
0.0404778993414634
 31
0.0
  0
CIRCLE
  5
97
330
8E
100
AcDbEntity
  8
0
 62
     7
100
AcDbCircle
 10
-0.0019354632442014
 20
0.0279654993414634
 30
0.0
 40
0.0175421
  0
LINE
  5
98
330
8E
100
AcDbEntity
  8
0
 62
     7
100
AcDbLine
 10
-0.0253094632442014
 20
0.0404778993414634
 30
0.0
 11
-0.0074813632442014
 21
0.0643541993414634
 31
0.0
  0
LINE
  5
99
330
8E
100
AcDbEntity
  8
0
 62
     7
100
AcDbLine
 10
0.0161602367557986
 20
0.0461547993414634
 30
0.0
 11
-0.0074813632442014
 21
0.0643541993414634
 31
0.0
  0
LINE
  5
9A
330
8E
100
AcDbEntity
  8
0
 62
     7
100
AcDbLine
 10
0.0108860367557986
 20
0.0399377993414634
 30
0.0
 11
0.0161602367557986
 21
0.0461547993414634
 31
0.0
  0
ENDBLK
  5
9C
330
8E
100
AcDbEntity
  8
0
100
AcDbBlockEnd
  0
BLOCK
  5
BC
330
AC
100
AcDbEntity
  8
0
100
AcDbBlockBegin
  2
CCCROWN
 70
     0
 10
0.0
 20
0.0
 30
0.0
  3
CCCROWN
  1

  0
CIRCLE
  5
AD
330
AC
100
AcDbEntity
  8
0
 62
     7
100
AcDbCircle
 10
1.453151451829637
 20
0.6765280889605166
 30
0.0
 40
1.344812
  0
LINE
  5
AE
330
AC
100
AcDbEntity
  8
0
 62
     7
100
AcDbLine
 10
0.8618244518296375
 20
0.5174780889605167
 30
0.0
 11
0.8767584518296375
 21
-0.6765521110394835
 31
0.0
  0
LINE
  5
AF
330
AC
100
AcDbEntity
  8
0
 62
     7
100
AcDbLine
 10
0.2226365518296377
 20
0.5174780889605167
 30
0.0
 11
0.2226365518296377
 21
0.1609270889605165
 31
0.0
  0
CIRCLE
  5
B0
330
AC
100
AcDbEntity
  8
0
 62
     7
100
AcDbCircle
 10
0.0027955518296377
 20
-0.7486109110394834
 30
0.0
 40
0.6896503000000001
  0
CIRCLE
  5
B1
330
AC
100
AcDbEntity
  8
0
 62
     7
100
AcDbCircle
 10
0.4295939518296377
 20
0.0154420889605165
 30
0.0
 40
0.1281395
  0
LINE
  5
B2
330
AC
100
AcDbEntity
  8
0
 62
     7
100
AcDbLine
 10
0.2315971518296377
 20
0.1443430889605164
 30
0.0
 11
0.2584788518296377
 21
0.1388150889605166
 31
0.0
  0
LINE
  5
B3
330
AC
100
AcDbEntity
  8
0
 62
     7
100
AcDbLine
 10
0.2226365518296377
 20
0.1609270889605165
 30
0.0
 11
0.2315971518296377
 21
0.1443430889605164
 31
0.0
  0
LINE
  5
B4
330
AC
100
AcDbEntity
  8
0
 62
     7
100
AcDbLine
 10
0.2823736518296376
 20
0.1360510889605164
 30
0.0
 11
0.3480845518296377
 21
0.1305240889605166
 31
0.0
  0
LINE
  5
B5
330
AC
100
AcDbEntity
  8
0
 62
     7
100
AcDbLine
 10
0.2584788518296377
 20
0.1388150889605166
 30
0.0
 11
0.2823736518296376
 21
0.1360510889605164
 31
0.0
  0
LINE
  5
B6
330
AC
100
AcDbEntity
  8
0
 62
     7
100
AcDbLine
 10
0.3480845518296377
 20
0.1305240889605166
 30
0.0
 11
0.3510714518296377
 21
0.1167040889605164
 31
0.0
  0
LINE
  5
B7
330
AC
100
AcDbEntity
  8
0
 62
     7
100
AcDbLine
 10
0.8767584518296375
 20
-0.6765521110394835
 30
0.0
 11
0.7304024518296377
 21
-0.6793160110394835
 31
0.0
  0
LINE
  5
B8
330
AC
100
AcDbEntity
  8
0
 62
     7
100
AcDbLine
 10
0.6855994518296377
 20
-0.6572044110394835
 30
0.0
 11
0.6885863518296378
 21
-0.6378567110394835
 31
0.0
  0
LINE
  5
B9
330
AC
100
AcDbEntity
  8
0
 62
     7
100
AcDbLine
 10
0.7304024518296377
 20
-0.6793160110394835
 30
0.0
 11
0.7065074518296378
 21
-0.6737881110394835
 31
0.0
  0
LINE
  5
BA
330
AC
100
AcDbEntity
  8
0
 62
     7
100
AcDbLine
 10
0.7065074518296378
 20
-0.6737881110394835
 30
0.0
 11
0.6855994518296377
 21
-0.6572044110394835
 31
0.0
  0
LINE
  5
BB
330
AC
100
AcDbEntity
  8
0
 62
     7
100
AcDbLine
 10
0.2226365518296377
 20
0.5174780889605167
 30
0.0
 11
0.8618244518296375
 21
0.5174780889605167
 31
0.0
  0
ENDBLK
  5
BD
330
AC
100
AcDbEntity
  8
0
100
AcDbBlockEnd
  0
BLOCK
  5
5C3
330
5B6
100
AcDbEntity
  8
0
100
AcDbBlockBegin
  2
track
 70
     0
 10
0.0
 20
0.0
 30
0.0
  3
track
  1

  0
LINE
  5
5B7
330
5B6
100
AcDbEntity
  8
PROFILE
100
AcDbLine
 10
16.53207238374206
 20
4.044320932551642
 30
0.0
 11
16.53207238374207
 21
5.014320932551641
 31
0.0
  0
LINE
  5
5B8
330
5B6
100
AcDbEntity
  8
PROFILE
100
AcDbLine
 10
15.60207238374206
 20
4.044320932551642
 30
0.0
 11
15.60207238374206
 21
5.014320932551641
 31
0.0
  0
LINE
  5
5B9
330
5B6
100
AcDbEntity
  8
PROFILE
100
AcDbLine
 10
15.47707238374207
 20
3.919320932551641
 30
0.0
 11
15.47707238374206
 21
5.13932093255164
 31
0.0
  0
LINE
  5
5BA
330
5B6
100
AcDbEntity
  8
PROFILE
100
AcDbLine
 10
16.65707238374206
 20
3.919320932551642
 30
0.0
 11
16.65707238374206
 21
5.13932093255164
 31
0.0
  0
LINE
  5
5BB
330
5B6
100
AcDbEntity
  8
PROFILE
100
AcDbLine
 10
15.60207238374206
 20
4.044320932551642
 30
0.0
 11
15.81707238374206
 21
4.044320932551641
 31
0.0
  0
LINE
  5
5BC
330
5B6
100
AcDbEntity
  8
PROFILE
100
AcDbLine
 10
15.47707238374207
 20
3.919320932551641
 30
0.0
 11
15.81707238374206
 21
3.919320932551641
 31
0.0
  0
LINE
  5
5BD
330
5B6
100
AcDbEntity
  8
PROFILE
100
AcDbLine
 10
15.81707238374207
 20
3.919320932551642
 30
0.0
 11
15.81707238374206
 21
4.044320932551641
 31
0.0
  0
LINE
  5
5BE
330
5B6
100
AcDbEntity
  8
PROFILE
100
AcDbLine
 10
16.31707238374207
 20
3.919320932551641
 30
0.0
 11
16.65707238374206
 21
3.919320932551642
 31
0.0
  0
LINE
  5
5BF
330
5B6
100
AcDbEntity
  8
PROFILE
100
AcDbLine
 10
16.31707238374207
 20
3.919320932551642
 30
0.0
 11
16.31707238374206
 21
4.04432093255164
 31
0.0
  0
LINE
  5
5C0
330
5B6
100
AcDbEntity
  8
PROFILE
100
AcDbLine
 10
16.31707238374206
 20
4.04432093255164
 30
0.0
 11
16.53207238374206
 21
4.044320932551642
 31
0.0
  0
LINE
  5
5C1
330
5B6
100
AcDbEntity
  8
PROFILE
100
AcDbLine
 10
15.60207238374206
 20
5.014320932551641
 30
0.0
 11
16.53207238374207
 21
5.014320932551641
 31
0.0
  0
LINE
  5
5C2
330
5B6
100
AcDbEntity
  8
PROFILE
100
AcDbLine
 10
15.47707238374206
 20
5.13932093255164
 30
0.0
 11
16.65707238374206
 21
5.13932093255164
 31
0.0
  0
ENDBLK
  5
5C4
330
5B6
100
AcDbEntity
  8
0
100
AcDbBlockEnd
  0
ENDSEC
  0
SECTION
  2
ENTITIES
  0
TEXT
  5
872
330
2
100
AcDbEntity
  8
ALL
 62
     1
100
AcDbText
 10
10.1278886576536
 20
5.264313420987609
 30
0.0
 40
0.125
  1
BWP-4003
 41
1.25
  7
PANROMAN
 72
     1
 11
10.6224508823232
 21
5.264313420987609
 31
0.0
100
AcDbText
  0
TEXT
  5
873
330
2
100
AcDbEntity
  8
ALL
 62
     1
100
AcDbText
 10
9.981825882323205
 20
5.119521996794968
 30
0.0
 40
0.075
  1
11/16" x 2 3/4"
 41
1.25
  7
TEST
 72
     1
 11
10.6224508823232
 21
5.119521996794968
 31
0.0
100
AcDbText
  0
POLYLINE
  5
874
330
2
100
AcDbEntity
  8
ALL
 62
     3
100
AcDb2dPolyline
 66
     1
 10
0.0
 20
0.0
 30
0.0
 70
     4
 75
     6
  0
VERTEX
  5
875
330
874
100
AcDbEntity
  8
ALL
 62
     3
100
AcDbVertex
100
AcDb2dVertex
 10
10.84973279526539
 20
8.206177659227938
 30
0.0
 70
    16
  0
VERTEX
  5
876
330
874
100
AcDbEntity
  8
ALL
 62
     3
100
AcDbVertex
100
AcDb2dVertex
 10
10.84973279526539
 20
8.206177659227938
 30
0.0
 70
     8
  0
VERTEX
  5
877
330
874
100
AcDbEntity
  8
ALL
 62
     3
100
AcDbVertex
100
AcDb2dVertex
 10
10.88773666373006
 20
8.183783081277658
 30
0.0
 70
     8
  0
VERTEX
  5
878
330
874
100
AcDbEntity
  8
ALL
 62
     3
100
AcDbVertex
100
AcDb2dVertex
 10
10.91998769771137
 20
8.16168436581683
 30
0.0
 70
     8
  0
VERTEX
  5
879
330
874
100
AcDbEntity
  8
ALL
 62
     3
100
AcDbVertex
100
AcDb2dVertex
 10
10.94711247133161
 20
8.139875677428795
 30
0.0
 70
     8
  0
VERTEX
  5
87A
330
874
100
AcDbEntity
  8
ALL
 62
     3
100
AcDbVertex
100
AcDb2dVertex
 10
10.96973755871306
 20
8.118351180696839
 30
0.0
 70
     8
  0
VERTEX
  5
87B
330
874
100
AcDbEntity
  8
ALL
 62
     3
100
AcDbVertex
100
AcDb2dVertex
 10
10.9884895339779
 20
8.097105040204246
 30
0.0
 70
     8
  0
VERTEX
  5
87C
330
874
100
AcDbEntity
  8
ALL
 62
     3
100
AcDbVertex
100
AcDb2dVertex
 10
11.00399497124848
 20
8.076131420534357
 30
0.0
 70
     8
  0
VERTEX
  5
87D
330
874
100
AcDbEntity
  8
ALL
 62
     3
100
AcDbVertex
100
AcDb2dVertex
 10
11.01688044464705
 20
8.055424486270458
 30
0.0
 70
     8
  0
VERTEX
  5
87E
330
874
100
AcDbEntity
  8
ALL
 62
     3
100
AcDbVertex
100
AcDb2dVertex
 10
11.02777252829579
 20
8.034978401995834
 30
0.0
 70
     8
  0
VERTEX
  5
87F
330
874
100
AcDbEntity
  8
ALL
 62
     3
100
AcDbVertex
100
AcDb2dVertex
 10
11.03720739186255
 20
8.01473933731251
 30
0.0
 70
     8
  0
VERTEX
  5
880
330
874
100
AcDbEntity
  8
ALL
 62
     3
100
AcDbVertex
100
AcDb2dVertex
 10
11.04535958719682
 20
7.994461481897252
 30
0.0
 70
     8
  0
VERTEX
  5
881
330
874
100
AcDbEntity
  8
ALL
 62
     3
100
AcDbVertex
100
AcDb2dVertex
 10
11.05231326169373
 20
7.973851030445564
 30
0.0
 70
     8
  0
VERTEX
  5
882
330
874
100
AcDbEntity
  8
ALL
 62
     3
100
AcDbVertex
100
AcDb2dVertex
 10
11.05815256274831
 20
7.952614177652923
 30
0.0
 70
     8
  0
VERTEX
  5
883
330
874
100
AcDbEntity
  8
ALL
 62
     3
100
AcDbVertex
100
AcDb2dVertex
 10
11.06296163775567
 20
7.930457118214809
 30
0.0
 70
     8
  0
VERTEX
  5
884
330
874
100
AcDbEntity
  8
ALL
 62
     3
100
AcDbVertex
100
AcDb2dVertex
 10
11.06682463411084
 20
7.907086046826696
 30
0.0
 70
     8
  0
VERTEX
  5
885
330
874
100
AcDbEntity
  8
ALL
 62
     3
100
AcDbVertex
100
AcDb2dVertex
 10
11.0698256992089
 20
7.882207158184064
 30
0.0
 70
     8
  0
VERTEX
  5
886
330
874
100
AcDbEntity
  8
ALL
 62
     3
100
AcDbVertex
100
AcDb2dVertex
 10
11.07204898044494
 20
7.855526646982417
 30
0.0
 70
     8
  0
VERTEX
  5
887
330
874
100
AcDbEntity
  8
ALL
 62
     3
100
AcDbVertex
100
AcDb2dVertex
 10
11.07356047053056
 20
7.826887460815703
 30
0.0
 70
     8
  0
VERTEX
  5
888
330
874
100
AcDbEntity
  8
ALL
 62
     3
100
AcDbVertex
100
AcDb2dVertex
 10
11.07435354344372
 20
7.796679558871778
 30
0.0
 70
     8
  0
VERTEX
  5
889
330
874
100
AcDbEntity
  8
ALL
 62
     3
100
AcDbVertex
100
AcDb2dVertex
 10
11.07440341847893
 20
7.765429653236969
 30
0.0
 70
     8
  0
VERTEX
  5
88A
330
874
100
AcDbEntity
  8
ALL
 62
     3
100
AcDbVertex
100
AcDb2dVertex
 10
11.07368531493074
 20
7.733664455997546
 30
0.0
 70
     8
  0
VERTEX
  5
88B
330
874
100
AcDbEntity
  8
ALL
 62
     3
100
AcDbVertex
100
AcDb2dVertex
 10
11.0721744520936
 20
7.701910679239892
 30
0.0
 70
     8
  0
VERTEX
  5
88C
330
874
100
AcDbEntity
  8
ALL
 62
     3
100
AcDbVertex
100
AcDb2dVertex
 10
11.06984604926205
 20
7.670695035050306
 30
0.0
 70
     8
  0
VERTEX
  5
88D
330
874
100
AcDbEntity
  8
ALL
 62
     3
100
AcDbVertex
100
AcDb2dVertex
 10
11.06667532573064
 20
7.640544235515084
 30
0.0
 70
     8
  0
VERTEX
  5
88E
330
874
100
AcDbEntity
  8
ALL
 62
     3
100
AcDbVertex
100
AcDb2dVertex
 10
11.06263750079386
 20
7.611984992720556
 30
0.0
 70
     8
  0
VERTEX
  5
88F
330
874
100
AcDbEntity
  8
ALL
 62
     3
100
AcDbVertex
100
AcDb2dVertex
 10
11.05771984437626
 20
7.585417981356419
 30
0.0
 70
     8
  0
VERTEX
  5
890
330
874
100
AcDbEntity
  8
ALL
 62
     3
100
AcDbVertex
100
AcDb2dVertex
 10
11.05195782892272
 20
7.560739726525559
 30
0.0
 70
     8
  0
VERTEX
  5
891
330
874
100
AcDbEntity
  8
ALL
 62
     3
100
AcDbVertex
100
AcDb2dVertex
 10
11.04539897750805
 20
7.537720715934289
 30
0.0
 70
     8
  0
VERTEX
  5
892
330
874
100
AcDbEntity
  8
ALL
 62
     3
100
AcDbVertex
100
AcDb2dVertex
 10
11.03809081320721
 20
7.516131437288924
 30
0.0
 70
     8
  0
VERTEX
  5
893
330
874
100
AcDbEntity
  8
ALL
 62
     3
100
AcDbVertex
100
AcDb2dVertex
 10
11.03008085909502
 20
7.495742378295693
 30
0.0
 70
     8
  0
VERTEX
  5
894
330
874
100
AcDbEntity
  8
ALL
 62
     3
100
AcDbVertex
100
AcDb2dVertex
 10
11.02141663824639
 20
7.476324026660909
 30
0.0
 70
     8
  0
VERTEX
  5
895
330
874
100
AcDbEntity
  8
ALL
 62
     3
100
AcDbVertex
100
AcDb2dVertex
 10
11.01214567373619
 20
7.45764687009086
 30
0.0
 70
     8
  0
VERTEX
  5
896
330
874
100
AcDbEntity
  8
ALL
 62
     3
100
AcDbVertex
100
AcDb2dVertex
 10
11.00231548863933
 20
7.439481396291801
 30
0.0
 70
     8
  0
VERTEX
  5
897
330
874
100
AcDbEntity
  8
ALL
 62
     3
100
AcDbVertex
100
AcDb2dVertex
 10
10.99197989337721
 20
7.421627211533467
 30
0.0
 70
     8
  0
VERTEX
  5
898
330
874
100
AcDbEntity
  8
ALL
 62
     3
100
AcDbVertex
100
AcDb2dVertex
 10
10.98121784775739
 20
7.404000396338977
 30
0.0
 70
     8
  0
VERTEX
  5
899
330
874
100
AcDbEntity
  8
ALL
 62
     3
100
AcDbVertex
100
AcDb2dVertex
 10
10.97011459893403
 20
7.386546149794986
 30
0.0
 70
     8
  0
VERTEX
  5
89A
330
874
100
AcDbEntity
  8
ALL
 62
     3
100
AcDbVertex
100
AcDb2dVertex
 10
10.95875539406117
 20
7.369209670988089
 30
0.0
 70
     8
  0
VERTEX
  5
89B
330
874
100
AcDbEntity
  8
ALL
 62
     3
100
AcDbVertex
100
AcDb2dVertex
 10
10.94722548029298
 20
7.351936159004855
 30
0.0
 70
     8
  0
VERTEX
  5
89C
330
874
100
AcDbEntity
  8
ALL
 62
     3
100
AcDbVertex
100
AcDb2dVertex
 10
10.93561010478356
 20
7.33467081293188
 30
0.0
 70
     8
  0
VERTEX
  5
89D
330
874
100
AcDbEntity
  8
ALL
 62
     3
100
AcDbVertex
100
AcDb2dVertex
 10
10.92399451468699
 20
7.317358831855733
 30
0.0
 70
     8
  0
VERTEX
  5
89E
330
874
100
AcDbEntity
  8
ALL
 62
     3
100
AcDbVertex
100
AcDb2dVertex
 10
10.91246395715739
 20
7.299945414863065
 30
0.0
 70
     8
  0
VERTEX
  5
89F
330
874
100
AcDbEntity
  8
ALL
 62
     3
100
AcDbVertex
100
AcDb2dVertex
 10
10.90109205785281
 20
7.282383911041938
 30
0.0
 70
     8
  0
VERTEX
  5
8A0
330
874
100
AcDbEntity
  8
ALL
 62
     3
100
AcDbVertex
100
AcDb2dVertex
 10
10.88990595644702
 20
7.264660269486403
 30
0.0
 70
     8
  0
VERTEX
  5
8A1
330
874
100
AcDbEntity
  8
ALL
 62
     3
100
AcDbVertex
100
AcDb2dVertex
 10
10.87892117111758
 20
7.246768589292065
 30
0.0
 70
     8
  0
VERTEX
  5
8A2
330
874
100
AcDbEntity
  8
ALL
 62
     3
100
AcDbVertex
100
AcDb2dVertex
 10
10.86815322004224
 20
7.228702969554438
 30
0.0
 70
     8
  0
VERTEX
  5
8A3
330
874
100
AcDbEntity
  8
ALL
 62
     3
100
AcDbVertex
100
AcDb2dVertex
 10
10.85761762139858
 20
7.210457509369126
 30
0.0
 70
     8
  0
VERTEX
  5
8A4
330
874
100
AcDbEntity
  8
ALL
 62
     3
100
AcDbVertex
100
AcDb2dVertex
 10
10.84732989336433
 20
7.192026307831644
 30
0.0
 70
     8
  0
VERTEX
  5
8A5
330
874
100
AcDbEntity
  8
ALL
 62
     3
100
AcDbVertex
100
AcDb2dVertex
 10
10.83730555411707
 20
7.173403464037624
 30
0.0
 70
     8
  0
VERTEX
  5
8A6
330
874
100
AcDbEntity
  8
ALL
 62
     3
100
AcDbVertex
100
AcDb2dVertex
 10
10.82756012183452
 20
7.154583077082554
 30
0.0
 70
     8
  0
VERTEX
  5
8A7
330
874
100
AcDbEntity
  8
ALL
 62
     3
100
AcDbVertex
100
AcDb2dVertex
 10
10.81811393227206
 20
7.135550479646161
 30
0.0
 70
     8
  0
VERTEX
  5
8A8
330
874
100
AcDbEntity
  8
ALL
 62
     3
100
AcDbVertex
100
AcDb2dVertex
 10
10.80900659149605
 20
7.116255938744364
 30
0.0
 70
     8
  0
VERTEX
  5
8A9
330
874
100
AcDbEntity
  8
ALL
 62
     3
100
AcDbVertex
100
AcDb2dVertex
 10
10.80028252315057
 20
7.096640954977265
 30
0.0
 70
     8
  0
VERTEX
  5
8AA
330
874
100
AcDbEntity
  8
ALL
 62
     3
100
AcDbVertex
100
AcDb2dVertex
 10
10.79198615087969
 20
7.076647028944938
 30
0.0
 70
     8
  0
VERTEX
  5
8AB
330
874
100
AcDbEntity
  8
ALL
 62
     3
100
AcDbVertex
100
AcDb2dVertex
 10
10.78416189832759
 20
7.056215661247454
 30
0.0
 70
     8
  0
VERTEX
  5
8AC
330
874
100
AcDbEntity
  8
ALL
 62
     3
100
AcDbVertex
100
AcDb2dVertex
 10
10.77685418913833
 20
7.03528835248486
 30
0.0
 70
     8
  0
VERTEX
  5
8AD
330
874
100
AcDbEntity
  8
ALL
 62
     3
100
AcDbVertex
100
AcDb2dVertex
 10
10.77010744695601
 20
7.013806603257227
 30
0.0
 70
     8
  0
VERTEX
  5
8AE
330
874
100
AcDbEntity
  8
ALL
 62
     3
100
AcDbVertex
100
AcDb2dVertex
 10
10.7639660954247
 20
6.991711914164659
 30
0.0
 70
     8
  0
VERTEX
  5
8AF
330
874
100
AcDbEntity
  8
ALL
 62
     3
100
AcDbVertex
100
AcDb2dVertex
 10
10.75846462898266
 20
6.968969797212998
 30
0.0
 70
     8
  0
VERTEX
  5
8B0
330
874
100
AcDbEntity
  8
ALL
 62
     3
100
AcDbVertex
100
AcDb2dVertex
 10
10.75359782524443
 20
6.945641810031282
 30
0.0
 70
     8
  0
VERTEX
  5
8B1
330
874
100
AcDbEntity
  8
ALL
 62
     3
100
AcDbVertex
100
AcDb2dVertex
 10
10.74935053261873
 20
6.921813521654264
 30
0.0
 70
     8
  0
VERTEX
  5
8B2
330
874
100
AcDbEntity
  8
ALL
 62
     3
100
AcDbVertex
100
AcDb2dVertex
 10
10.74570759951424
 20
6.89757050111678
 30
0.0
 70
     8
  0
VERTEX
  5
8B3
330
874
100
AcDbEntity
  8
ALL
 62
     3
100
AcDbVertex
100
AcDb2dVertex
 10
10.74265387433965
 20
6.87299831745367
 30
0.0
 70
     8
  0
VERTEX
  5
8B4
330
874
100
AcDbEntity
  8
ALL
 62
     3
100
AcDbVertex
100
AcDb2dVertex
 10
10.74017420550367
 20
6.848182539699684
 30
0.0
 70
     8
  0
VERTEX
  5
8B5
330
874
100
AcDbEntity
  8
ALL
 62
     3
100
AcDbVertex
100
AcDb2dVertex
 10
10.73825344141496
 20
6.82320873688966
 30
0.0
 70
     8
  0
VERTEX
  5
8B6
330
874
100
AcDbEntity
  8
ALL
 62
     3
100
AcDbVertex
100
AcDb2dVertex
 10
10.73687643048222
 20
6.798162478058407
 30
0.0
 70
     8
  0
VERTEX
  5
8B7
330
874
100
AcDbEntity
  8
ALL
 62
     3
100
AcDbVertex
100
AcDb2dVertex
 10
10.73602975984184
 20
6.7731200942003
 30
0.0
 70
     8
  0
VERTEX
  5
8B8
330
874
100
AcDbEntity
  8
ALL
 62
     3
100
AcDbVertex
100
AcDb2dVertex
 10
10.73570697154079
 20
6.74812096414812
 30
0.0
 70
     8
  0
VERTEX
  5
8B9
330
874
100
AcDbEntity
  8
ALL
 62
     3
100
AcDbVertex
100
AcDb2dVertex
 10
10.73590334635383
 20
6.723195228694243
 30
0.0
 70
     8
  0
VERTEX
  5
8BA
330
874
100
AcDbEntity
  8
ALL
 62
     3
100
AcDbVertex
100
AcDb2dVertex
 10
10.73661416505561
 20
6.698373028630988
 30
0.0
 70
     8
  0
VERTEX
  5
8BB
330
874
100
AcDbEntity
  8
ALL
 62
     3
100
AcDbVertex
100
AcDb2dVertex
 10
10.73783470842081
 20
6.67368450475073
 30
0.0
 70
     8
  0
VERTEX
  5
8BC
330
874
100
AcDbEntity
  8
ALL
 62
     3
100
AcDbVertex
100
AcDb2dVertex
 10
10.73956025722418
 20
6.649159797845817
 30
0.0
 70
     8
  0
VERTEX
  5
8BD
330
874
100
AcDbEntity
  8
ALL
 62
     3
100
AcDbVertex
100
AcDb2dVertex
 10
10.7417860922404
 20
6.624829048708597
 30
0.0
 70
     8
  0
VERTEX
  5
8BE
330
874
100
AcDbEntity
  8
ALL
 62
     3
100
AcDbVertex
100
AcDb2dVertex
 10
10.74450749424411
 20
6.600722398131472
 30
0.0
 70
     8
  0
VERTEX
  5
8BF
330
874
100
AcDbEntity
  8
ALL
 62
     3
100
AcDbVertex
100
AcDb2dVertex
 10
10.74773075654266
 20
6.576870260094529
 30
0.0
 70
     8
  0
VERTEX
  5
8C0
330
874
100
AcDbEntity
  8
ALL
 62
     3
100
AcDbVertex
100
AcDb2dVertex
 10
10.7515062225737
 20
6.553304141329056
 30
0.0
 70
     8
  0
VERTEX
  5
8C1
330
874
100
AcDbEntity
  8
ALL
 62
     3
100
AcDbVertex
100
AcDb2dVertex
 10
10.75589524830755
 20
6.53005582175411
 30
0.0
 70
     8
  0
VERTEX
  5
8C2
330
874
100
AcDbEntity
  8
ALL
 62
     3
100
AcDbVertex
100
AcDb2dVertex
 10
10.76095918971444
 20
6.507157081288744
 30
0.0
 70
     8
  0
VERTEX
  5
8C3
330
874
100
AcDbEntity
  8
ALL
 62
     3
100
AcDbVertex
100
AcDb2dVertex
 10
10.76675940276467
 20
6.484639699851988
 30
0.0
 70
     8
  0
VERTEX
  5
8C4
330
874
100
AcDbEntity
  8
ALL
 62
     3
100
AcDbVertex
100
AcDb2dVertex
 10
10.7733572434285
 20
6.462535457362924
 30
0.0
 70
     8
  0
VERTEX
  5
8C5
330
874
100
AcDbEntity
  8
ALL
 62
     3
100
AcDbVertex
100
AcDb2dVertex
 10
10.78081406767622
 20
6.440876133740608
 30
0.0
 70
     8
  0
VERTEX
  5
8C6
330
874
100
AcDbEntity
  8
ALL
 62
     3
100
AcDbVertex
100
AcDb2dVertex
 10
10.78919123147812
 20
6.419693508904038
 30
0.0
 70
     8
  0
VERTEX
  5
8C7
330
874
100
AcDbEntity
  8
ALL
 62
     3
100
AcDbVertex
100
AcDb2dVertex
 10
10.95930384525763
 20
8.14605911433748
 30
0.0
 70
    16
  0
VERTEX
  5
8C8
330
874
100
AcDbEntity
  8
ALL
 62
     3
100
AcDbVertex
100
AcDb2dVertex
 10
11.04235189498925
 20
8.032258246554851
 30
0.0
 70
    16
  0
VERTEX
  5
8C9
330
874
100
AcDbEntity
  8
ALL
 62
     3
100
AcDbVertex
100
AcDb2dVertex
 10
11.07944776942602
 20
7.877877877526833
 30
0.0
 70
    16
  0
VERTEX
  5
8CA
330
874
100
AcDbEntity
  8
ALL
 62
     3
100
AcDbVertex
100
AcDb2dVertex
 10
11.07215090997632
 20
7.589390125232318
 30
0.0
 70
    16
  0
VERTEX
  5
8CB
330
874
100
AcDbEntity
  8
ALL
 62
     3
100
AcDbVertex
100
AcDb2dVertex
 10
11.00777359543181
 20
7.436471577867314
 30
0.0
 70
    16
  0
VERTEX
  5
8CC
330
874
100
AcDbEntity
  8
ALL
 62
     3
100
AcDbVertex
100
AcDb2dVertex
 10
10.91064764013245
 20
7.301611941049264
 30
0.0
 70
    16
  0
VERTEX
  5
8CD
330
874
100
AcDbEntity
  8
ALL
 62
     3
100
AcDbVertex
100
AcDb2dVertex
 10
10.82441958698288
 20
7.156753147114022
 30
0.0
 70
    16
  0
VERTEX
  5
8CE
330
874
100
AcDbEntity
  8
ALL
 62
     3
100
AcDbVertex
100
AcDb2dVertex
 10
10.75703474294326
 20
6.998873932990085
 30
0.0
 70
    16
  0
VERTEX
  5
8CF
330
874
100
AcDbEntity
  8
ALL
 62
     3
100
AcDbVertex
100
AcDb2dVertex
 10
10.73123801379241
 20
6.798022605913678
 30
0.0
 70
    16
  0
VERTEX
  5
8D0
330
874
100
AcDbEntity
  8
ALL
 62
     3
100
AcDbVertex
100
AcDb2dVertex
 10
10.73927178478041
 20
6.598010511705672
 30
0.0
 70
    16
  0
VERTEX
  5
8D1
330
874
100
AcDbEntity
  8
ALL
 62
     3
100
AcDbVertex
100
AcDb2dVertex
 10
10.76557046996057
 20
6.475516661270183
 30
0.0
 70
    16
  0
VERTEX
  5
8D2
330
874
100
AcDbEntity
  8
ALL
 62
     3
100
AcDbVertex
100
AcDb2dVertex
 10
10.78919123147812
 20
6.419693508904038
 30
0.0
 70
    16
  0
SEQEND
  5
8D3
330
874
100
AcDbEntity
  8
ALL
 62
     3
  0
LINE
  5
8D4
330
2
100
AcDbEntity
  8
ALL
 62
     3
100
AcDbLine
 10
10.36933699606943
 20
8.580560889417688
 30
0.0
 11
10.36933699606943
 21
5.830560889417689
 31
0.0
  0
LINE
  5
8D5
330
2
100
AcDbEntity
  8
ALL
 62
     3
100
AcDbLine
 10
10.55683699606943
 20
5.830560889417689
 30
0.0
 11
10.55683699606943
 21
5.945001345316661
 31
0.0
  0
LINE
  5
8D6
330
2
100
AcDbEntity
  8
ALL
 62
     3
100
AcDbLine
 10
10.36933699606943
 20
5.830560889417689
 30
0.0
 11
10.55683699606943
 21
5.830560889417689
 31
0.0
  0
LINE
  5
8D7
330
2
100
AcDbEntity
  8
ALL
 62
     3
100
AcDbLine
 10
10.78919123147812
 20
6.419693508904038
 30
0.0
 11
10.69624164437467
 21
6.327595403534423
 31
0.0
  0
ARC
  5
8D8
330
2
100
AcDbEntity
  8
ALL
 62
     3
100
AcDbCircle
 10
10.59213950677188
 20
6.150461238198125
 30
0.0
 40
0.2054598928814618
100
AcDbArc
 50
270.0
 51
59.55715272611548
  0
LINE
  5
8D9
330
2
100
AcDbEntity
  8
ALL
 62
     3
100
AcDbLine
 10
10.59213950677188
 20
5.945001345316661
 30
0.0
 11
10.55683699606943
 21
5.945001345316661
 31
0.0
  0
LINE
  5
8DA
330
2
100
AcDbEntity
  8
ALL
 62
     3
100
AcDbLine
 10
10.55683699606943
 20
5.945001345316661
 30
0.0
 11
10.59213950677188
 21
5.945001345316661
 31
0.0
  0
POLYLINE
  5
8DB
330
2
100
AcDbEntity
  8
ALL
 62
     3
100
AcDb2dPolyline
 66
     1
 10
0.0
 20
0.0
 30
0.0
 70
     4
 75
     6
  0
VERTEX
  5
8DC
330
8DB
100
AcDbEntity
  8
ALL
 62
     3
100
AcDbVertex
100
AcDb2dVertex
 10
10.55683699606943
 20
8.580560889417688
 30
0.0
 70
    16
  0
VERTEX
  5
8DD
330
8DB
100
AcDbEntity
  8
ALL
 62
     3
100
AcDbVertex
100
AcDb2dVertex
 10
10.55683699606943
 20
8.580560889417688
 30
0.0
 70
     8
  0
VERTEX
  5
8DE
330
8DB
100
AcDbEntity
  8
ALL
 62
     3
100
AcDbVertex
100
AcDb2dVertex
 10
10.56554546663697
 20
8.555577445397238
 30
0.0
 70
     8
  0
VERTEX
  5
8DF
330
8DB
100
AcDbEntity
  8
ALL
 62
     3
100
AcDbVertex
100
AcDb2dVertex
 10
10.57453693011298
 20
8.533888784917399
 30
0.0
 70
     8
  0
VERTEX
  5
8E0
330
8DB
100
AcDbEntity
  8
ALL
 62
     3
100
AcDbVertex
100
AcDb2dVertex
 10
10.58376037407528
 20
8.515107263558666
 30
0.0
 70
     8
  0
VERTEX
  5
8E1
330
8DB
100
AcDbEntity
  8
ALL
 62
     3
100
AcDbVertex
100
AcDb2dVertex
 10
10.59316478610166
 20
8.498845236901678
 30
0.0
 70
     8
  0
VERTEX
  5
8E2
330
8DB
100
AcDbEntity
  8
ALL
 62
     3
100
AcDbVertex
100
AcDb2dVertex
 10
10.60269915376996
 20
8.484715060526985
 30
0.0
 70
     8
  0
VERTEX
  5
8E3
330
8DB
100
AcDbEntity
  8
ALL
 62
     3
100
AcDbVertex
100
AcDb2dVertex
 10
10.61231246465793
 20
8.472329090015113
 30
0.0
 70
     8
  0
VERTEX
  5
8E4
330
8DB
100
AcDbEntity
  8
ALL
 62
     3
100
AcDbVertex
100
AcDb2dVertex
 10
10.62195370634344
 20
8.4612996809467
 30
0.0
 70
     8
  0
VERTEX
  5
8E5
330
8DB
100
AcDbEntity
  8
ALL
 62
     3
100
AcDbVertex
100
AcDb2dVertex
 10
10.63157186640424
 20
8.451239188902269
 30
0.0
 70
     8
  0
VERTEX
  5
8E6
330
8DB
100
AcDbEntity
  8
ALL
 62
     3
100
AcDbVertex
100
AcDb2dVertex
 10
10.64114103584404
 20
8.44181207387175
 30
0.0
 70
     8
  0
VERTEX
  5
8E7
330
8DB
100
AcDbEntity
  8
ALL
 62
     3
100
AcDbVertex
100
AcDb2dVertex
 10
10.65073571937031
 20
8.432891213482553
 30
0.0
 70
     8
  0
VERTEX
  5
8E8
330
8DB
100
AcDbEntity
  8
ALL
 62
     3
100
AcDbVertex
100
AcDb2dVertex
 10
10.6604555251163
 20
8.424401589771354
 30
0.0
 70
     8
  0
VERTEX
  5
8E9
330
8DB
100
AcDbEntity
  8
ALL
 62
     3
100
AcDbVertex
100
AcDb2dVertex
 10
10.67040006121538
 20
8.41626818477494
 30
0.0
 70
     8
  0
VERTEX
  5
8EA
330
8DB
100
AcDbEntity
  8
ALL
 62
     3
100
AcDbVertex
100
AcDb2dVertex
 10
10.68066893580086
 20
8.408415980530014
 30
0.0
 70
     8
  0
VERTEX
  5
8EB
330
8DB
100
AcDbEntity
  8
ALL
 62
     3
100
AcDbVertex
100
AcDb2dVertex
 10
10.69136175700603
 20
8.400769959073306
 30
0.0
 70
     8
  0
VERTEX
  5
8EC
330
8DB
100
AcDbEntity
  8
ALL
 62
     3
100
AcDbVertex
100
AcDb2dVertex
 10
10.70257813296427
 20
8.393255102441576
 30
0.0
 70
     8
  0
VERTEX
  5
8ED
330
8DB
100
AcDbEntity
  8
ALL
 62
     3
100
AcDbVertex
100
AcDb2dVertex
 10
10.71441767180883
 20
8.385796392671556
 30
0.0
 70
     8
  0
VERTEX
  5
8EE
330
8DB
100
AcDbEntity
  8
ALL
 62
     3
100
AcDbVertex
100
AcDb2dVertex
 10
10.72699211443247
 20
8.378347051767383
 30
0.0
 70
     8
  0
VERTEX
  5
8EF
330
8DB
100
AcDbEntity
  8
ALL
 62
     3
100
AcDbVertex
100
AcDb2dVertex
 10
10.74046173276525
 20
8.370973261603017
 30
0.0
 70
     8
  0
VERTEX
  5
8F0
330
8DB
100
AcDbEntity
  8
ALL
 62
     3
100
AcDbVertex
100
AcDb2dVertex
 10
10.75499893149668
 20
8.363769444019828
 30
0.0
 70
     8
  0
VERTEX
  5
8F1
330
8DB
100
AcDbEntity
  8
ALL
 62
     3
100
AcDbVertex
100
AcDb2dVertex
 10
10.77077611531623
 20
8.356830020859183
 30
0.0
 70
     8
  0
VERTEX
  5
8F2
330
8DB
100
AcDbEntity
  8
ALL
 62
     3
100
AcDbVertex
100
AcDb2dVertex
 10
10.7879656889134
 20
8.350249413962478
 30
0.0
 70
     8
  0
VERTEX
  5
8F3
330
8DB
100
AcDbEntity
  8
ALL
 62
     3
100
AcDbVertex
100
AcDb2dVertex
 10
10.80674005697767
 20
8.344122045171081
 30
0.0
 70
     8
  0
VERTEX
  5
8F4
330
8DB
100
AcDbEntity
  8
ALL
 62
     3
100
AcDbVertex
100
AcDb2dVertex
 10
10.82727162419851
 20
8.338542336326332
 30
0.0
 70
     8
  0
VERTEX
  5
8F5
330
8DB
100
AcDbEntity
  8
ALL
 62
     3
100
AcDbVertex
100
AcDb2dVertex
 10
10.84973279526539
 20
8.333604709269655
 30
0.0
 70
     8
  0
VERTEX
  5
8F6
330
8DB
100
AcDbEntity
  8
ALL
 62
     3
100
AcDbVertex
100
AcDb2dVertex
 10
10.57963691599623
 20
8.50920075449182
 30
0.0
 70
    16
  0
VERTEX
  5
8F7
330
8DB
100
AcDbEntity
  8
ALL
 62
     3
100
AcDbVertex
100
AcDb2dVertex
 10
10.6323622029044
 20
8.445038947786917
 30
0.0
 70
    16
  0
VERTEX
  5
8F8
330
8DB
100
AcDbEntity
  8
ALL
 62
     3
100
AcDbVertex
100
AcDb2dVertex
 10
10.7067081142656
 20
8.38599768442163
 30
0.0
 70
    16
  0
VERTEX
  5
8F9
330
8DB
100
AcDbEntity
  8
ALL
 62
     3
100
AcDbVertex
100
AcDb2dVertex
 10
10.78711028534607
 20
8.345831675177754
 30
0.0
 70
    16
  0
VERTEX
  5
8FA
330
8DB
100
AcDbEntity
  8
ALL
 62
     3
100
AcDbVertex
100
AcDb2dVertex
 10
10.84973279526539
 20
8.333604709269655
 30
0.0
 70
    16
  0
SEQEND
  5
8FB
330
8DB
100
AcDbEntity
  8
ALL
 62
     3
  0
LINE
  5
8FC
330
2
100
AcDbEntity
  8
ALL
 62
     3
100
AcDbLine
 10
10.84973279526539
 20
8.333604709269655
 30
0.0
 11
10.84973279526539
 21
8.206177659227938
 31
0.0
  0
LINE
  5
8FD
330
2
100
AcDbEntity
  8
ALL
 62
     3
100
AcDbLine
 10
10.36933699606943
 20
8.580560889417688
 30
0.0
 11
10.55683699606943
 21
8.580560889417688
 31
0.0
  0
VIEWPORT
  5
10F
330
7
100
AcDbEntity
 67
     1
  8
0
100
AcDbViewport
 10
7.329044117647058
 20
4.494742024799509
 30
0.0
 40
14.65808823529411
 41
9.0
 68
     1
 69
     1
 12
7.329044117647058
 22
4.494742024799509
 13
0.0
 23
0.0
 14
0.5
 24
0.5
 15
0.5
 25
0.5
 16
0.0
 26
0.0
 36
1.0
 17
0.0
 27
0.0
 37
0.0
 42
50.0
 43
0.0
 44
0.0
 45
9.0
 50
0.0
 51
0.0
 72
   100
 90
    32800
  1

281
     0
 71
     1
 74
     0
110
0.0
120
0.0
130
0.0
111
1.0
121
0.0
131
0.0
112
0.0
122
1.0
132
0.0
 79
     0
146
0.0
  0
ENDSEC
  0
SECTION
  2
OBJECTS
  0
DICTIONARY
  5
1A
330
0
100
AcDbDictionary
281
     1
  3
ACAD_GROUP
350
18
  3
ACAD_IMAGE_DICT
350
1E2
  3
ACAD_IMAGE_VARS
350
1E3
  3
ACAD_LAYOUT
350
16B
  3
ACAD_MLINESTYLE
350
19
  3
ACAD_PLOTSETTINGS
350
16C
  3
ACAD_PLOTSTYLENAME
350
169
  3
AcDbVariableDictionary
350
475
  3
DWGPROPS
350
172
  0
DICTIONARY
  5
18
102
{ACAD_REACTORS
330
1A
102
}
330
1A
100
AcDbDictionary
281
     1
  0
DICTIONARY
  5
1E2
102
{ACAD_REACTORS
330
1A
102
}
330
1A
100
AcDbDictionary
281
     1
  3
darlin
350
1E4
  3
sc
350
3D3
  0
RASTERVARIABLES
  5
1E3
102
{ACAD_REACTORS
330
1A
102
}
330
1A
100
AcDbRasterVariables
 90
        0
 70
     1
 71
     1
 72
     0
  0
DICTIONARY
  5
16B
102
{ACAD_REACTORS
330
1A
102
}
330
1A
100
AcDbDictionary
281
     1
  3
Layout1
350
16E
  3
Model
350
16D
  0
DICTIONARY
  5
19
102
{ACAD_REACTORS
330
1A
102
}
330
1A
100
AcDbDictionary
281
     1
  3
STANDARD
350
1C
  0
DICTIONARY
  5
16C
102
{ACAD_REACTORS
330
1A
102
}
330
1A
100
AcDbDictionary
281
     1
  0
ACDBDICTIONARYWDFLT
  5
169
102
{ACAD_REACTORS
330
1A
102
}
330
1A
100
AcDbDictionary
281
     1
  3
Normal
350
16A
100
AcDbDictionaryWithDefault
340
16A
  0
DICTIONARY
  5
475
102
{ACAD_REACTORS
330
1A
102
}
330
1A
100
AcDbDictionary
281
     1
  3
DIMASSOC
350
476
  0
XRECORD
  5
172
102
{ACAD_REACTORS
330
1A
102
}
330
1A
100
AcDbXrecord
280
     1
  1
DWGPROPS COOKIE
  2

  3

  4

  6

  7

  8
Benson Wood Products
  9

300
=
301
=
302
=
303
=
304
=
305
=
306
=
307
=
308
=
309
=
 40
0.1320853009259259
 41
2451257.51637963
 42
2453236.309322916
  1

 90
        0
  0
IMAGEDEF
  5
1E4
102
{ACAD_REACTORS
330
1E2
102
}
330
1E2
100
AcDbRasterImageDef
 90
        0
  1
C:\AutoCAD 2000i\scans\darlin.bmp
 10
661.0
 20
624.0
 11
0.0846668355628098
 21
0.0846668355628098
280
     1
281
     2
  0
IMAGEDEF
  5
3D3
102
{ACAD_REACTORS
330
1E2
102
}
330
1E2
100
AcDbRasterImageDef
 90
        0
  1
C:\AutoCAD 2000i\scans\sc.bmp
 10
1285.0
 20
1897.0
 11
0.0423334177814049
 21
0.0423334177814049
280
     1
281
     2
  0
LAYOUT
  5
16E
102
{ACAD_REACTORS
330
16B
102
}
330
16B
100
AcDbPlotSettings
  1

  2
\\Bwp-cnc\HP LaserJet 6P
  4

  6

 40
0.0
 41
0.0
 42
0.0
 43
0.0
 44
0.0
 45
0.0
 46
0.0
 47
0.0
 48
0.0
 49
0.0
140
0.0
141
0.0
142
1.0
143
1.0
 70
   688
 72
     0
 73
     0
 74
     5
  7
monochrome.ctb
 75
    16
147
1.0
148
0.0
149
0.0
100
AcDbLayout
  1
Layout1
 70
     1
 71
     1
 10
0.0
 20
0.0
 11
12.0
 21
9.0
 12
0.0
 22
0.0
 32
0.0
 14
1.000000000000000E+20
 24
1.000000000000000E+20
 34
1.000000000000000E+20
 15
-1.000000000000000E+20
 25
-1.000000000000000E+20
 35
-1.000000000000000E+20
146
0.0
 13
0.0
 23
0.0
 33
0.0
 16
1.0
 26
0.0
 36
0.0
 17
0.0
 27
1.0
 37
0.0
 76
     0
330
7
331
10F
  0
LAYOUT
  5
16D
102
{ACAD_REACTORS
330
16B
102
}
330
16B
100
AcDbPlotSettings
  1

  2
PrimoPDF
  4
Letter
  6

 40
3.174999952316284
 41
3.174999952316284
 42
3.175003051757812
 43
3.17498779296875
 44
215.8999938964843
 45
279.3999938964843
 46
86.10599999999999
 47
89.66199999999998
 48
9.91127763176399
 49
5.023520305561341
140
11.37576568561083
141
8.71973992562923
142
1.0
143
1.0
 70
 11956
 72
     0
 73
     0
 74
     4
  7
monochrome.ctb
 75
    16
147
1.0
148
-251.7464518468053
149
-127.597415761258
100
AcDbLayout
  1
Model
 70
     1
 71
     0
 10
0.0
 20
0.0
 11
12.0
 21
9.0
 12
0.0
 22
0.0
 32
0.0
 14
0.0
 24
0.0
 34
0.0
 15
0.0
 25
0.0
 35
0.0
146
0.0
 13
0.0
 23
0.0
 33
0.0
 16
1.0
 26
0.0
 36
0.0
 17
0.0
 27
1.0
 37
0.0
 76
     0
330
2
  0
MLINESTYLE
  5
1C
102
{ACAD_REACTORS
330
19
102
}
330
19
100
AcDbMlineStyle
  2
STANDARD
 70
     0
  3

 62
     0
 51
90.0
 52
90.0
 71
     2
 49
0.5
 62
   256
  6
BYLAYER
 49
-0.5
 62
   256
  6
BYLAYER
  0
ACDBPLACEHOLDER
  5
16A
102
{ACAD_REACTORS
330
169
102
}
330
169
  0
DICTIONARYVAR
  5
476
102
{ACAD_REACTORS
330
475
102
}
330
475
100
DictionaryVariables
280
     0
  1
1
  0
ENDSEC
  0
EOF
