  0
SECTION
  2
HEADER
  9
$ACADVER
  1
AC1014
  9
$ACADMAINTVER
 70
     9
  9
$DWGCODEPAGE
  3
ANSI_1252
  9
$INSBASE
 10
0.0
 20
0.0
 30
0.0
  9
$EXTMIN
 10
10.52453617300435
 20
5.231294390345723
 30
-0.0015258207003583
  9
$EXTMAX
 10
11.6414795197098
 20
8.705939342429161
 30
0.0000000349246037
  9
$LIMMIN
 10
0.0
 20
0.0
  9
$LIMMAX
 10
12.0
 20
9.0
  9
$ORTHOMODE
 70
     0
  9
$REGENMODE
 70
     1
  9
$FILLMODE
 70
     1
  9
$QTEXTMODE
 70
     0
  9
$MIRRTEXT
 70
     1
  9
$DRAGMODE
 70
     2
  9
$LTSCALE
 40
1.0
  9
$OSMODE
 70
   679
  9
$ATTMODE
 70
     1
  9
$TEXTSIZE
 40
0.2
  9
$TRACEWID
 40
0.05
  9
$TEXTSTYLE
  7
STANDARD
  9
$CLAYER
  8
PROFILE
  9
$CELTYPE
  6
BYLAYER
  9
$CECOLOR
 62
   256
  9
$CELTSCALE
 40
1.0
  9
$DELOBJ
 70
     1
  9
$DISPSILH
 70
     0
  9
$DIMSCALE
 40
1.0
  9
$DIMASZ
 40
0.18
  9
$DIMEXO
 40
0.0625
  9
$DIMDLI
 40
0.38
  9
$DIMRND
 40
0.0
  9
$DIMDLE
 40
0.0
  9
$DIMEXE
 40
0.18
  9
$DIMTP
 40
0.0
  9
$DIMTM
 40
0.0
  9
$DIMTXT
 40
0.18
  9
$DIMCEN
 40
0.09
  9
$DIMTSZ
 40
0.0
  9
$DIMTOL
 70
     0
  9
$DIMLIM
 70
     0
  9
$DIMTIH
 70
     1
  9
$DIMTOH
 70
     1
  9
$DIMSE1
 70
     0
  9
$DIMSE2
 70
     0
  9
$DIMTAD
 70
     0
  9
$DIMZIN
 70
     0
  9
$DIMBLK
  1

  9
$DIMASO
 70
     1
  9
$DIMSHO
 70
     1
  9
$DIMPOST
  1

  9
$DIMAPOST
  1

  9
$DIMALT
 70
     0
  9
$DIMALTD
 70
     2
  9
$DIMALTF
 40
25.4
  9
$DIMLFAC
 40
1.0
  9
$DIMTOFL
 70
     0
  9
$DIMTVP
 40
0.0
  9
$DIMTIX
 70
     0
  9
$DIMSOXD
 70
     0
  9
$DIMSAH
 70
     0
  9
$DIMBLK1
  1

  9
$DIMBLK2
  1

  9
$DIMSTYLE
  2
STANDARD_WS
  9
$DIMCLRD
 70
     0
  9
$DIMCLRE
 70
     0
  9
$DIMCLRT
 70
     0
  9
$DIMTFAC
 40
1.0
  9
$DIMGAP
 40
0.09
  9
$DIMJUST
 70
     0
  9
$DIMSD1
 70
     0
  9
$DIMSD2
 70
     0
  9
$DIMTOLJ
 70
     1
  9
$DIMTZIN
 70
     0
  9
$DIMALTZ
 70
     0
  9
$DIMALTTZ
 70
     0
  9
$DIMFIT
 70
     3
  9
$DIMUPT
 70
     0
  9
$DIMUNIT
 70
     2
  9
$DIMDEC
 70
     4
  9
$DIMTDEC
 70
     4
  9
$DIMALTU
 70
     2
  9
$DIMALTTD
 70
     2
  9
$DIMTXSTY
  7
STANDARD
  9
$DIMAUNIT
 70
     0
  9
$LUNITS
 70
     2
  9
$LUPREC
 70
     4
  9
$SKETCHINC
 40
0.1
  9
$FILLETRAD
 40
0.0
  9
$AUNITS
 70
     0
  9
$AUPREC
 70
     4
  9
$MENU
  1
.
  9
$ELEVATION
 40
0.0
  9
$PELEVATION
 40
0.0
  9
$THICKNESS
 40
0.0
  9
$LIMCHECK
 70
     0
  9
$BLIPMODE
 70
     0
  9
$CHAMFERA
 40
0.5
  9
$CHAMFERB
 40
0.5
  9
$CHAMFERC
 40
1.0
  9
$CHAMFERD
 40
0.0
  9
$SKPOLY
 70
     1
  9
$TDCREATE
 40
2451257.516379630
  9
$TDUPDATE
 40
2454939.552930475
  9
$TDINDWG
 40
5.0496625694
  9
$TDUSRTIMER
 40
5.0496625694
  9
$USRTIMER
 70
     1
  9
$ANGBASE
 50
0.0
  9
$ANGDIR
 70
     0
  9
$PDMODE
 70
     0
  9
$PDSIZE
 40
0.0
  9
$PLINEWID
 40
0.0
  9
$COORDS
 70
     1
  9
$SPLFRAME
 70
     0
  9
$SPLINETYPE
 70
     6
  9
$SPLINESEGS
 70
     8
  9
$ATTDIA
 70
     0
  9
$ATTREQ
 70
     1
  9
$HANDLING
 70
 22529
  9
$HANDSEED
  5
9AE
  9
$SURFTAB1
 70
     6
  9
$SURFTAB2
 70
     6
  9
$SURFTYPE
 70
     6
  9
$SURFU
 70
     6
  9
$SURFV
 70
     6
  9
$UCSNAME
  2

  9
$UCSORG
 10
0.0
 20
0.0
 30
0.0
  9
$UCSXDIR
 10
1.0
 20
0.0
 30
0.0
  9
$UCSYDIR
 10
0.0
 20
1.0
 30
0.0
  9
$PUCSNAME
  2

  9
$PUCSORG
 10
0.0
 20
0.0
 30
0.0
  9
$PUCSXDIR
 10
1.0
 20
0.0
 30
0.0
  9
$PUCSYDIR
 10
0.0
 20
1.0
 30
0.0
  9
$USERI1
 70
     0
  9
$USERI2
 70
     0
  9
$USERI3
 70
     0
  9
$USERI4
 70
     0
  9
$USERI5
 70
     0
  9
$USERR1
 40
0.0
  9
$USERR2
 40
0.0
  9
$USERR3
 40
0.0
  9
$USERR4
 40
0.0
  9
$USERR5
 40
0.0
  9
$WORLDVIEW
 70
     1
  9
$SHADEDGE
 70
     3
  9
$SHADEDIF
 70
    70
  9
$TILEMODE
 70
     1
  9
$MAXACTVP
 70
    48
  9
$PINSBASE
 10
0.0
 20
0.0
 30
0.0
  9
$PLIMCHECK
 70
     0
  9
$PEXTMIN
 10
1.000000000000000E+20
 20
1.000000000000000E+20
 30
1.000000000000000E+20
  9
$PEXTMAX
 10
-1.000000000000000E+20
 20
-1.000000000000000E+20
 30
-1.000000000000000E+20
  9
$PLIMMIN
 10
0.0
 20
0.0
  9
$PLIMMAX
 10
12.0
 20
9.0
  9
$UNITMODE
 70
     0
  9
$VISRETAIN
 70
     0
  9
$PLINEGEN
 70
     0
  9
$PSLTSCALE
 70
     1
  9
$TREEDEPTH
 70
  3020
  9
$PICKSTYLE
 70
     1
  9
$CMLSTYLE
  2
STANDARD
  9
$CMLJUST
 70
     0
  9
$CMLSCALE
 40
1.0
  9
$PROXYGRAPHICS
 70
     1
  9
$MEASUREMENT
 70
     0
  0
ENDSEC
  0
SECTION
  2
CLASSES
  0
CLASS
  1
DICTIONARYVAR
  2
AcDbDictionaryVar
  3
AutoCAD 2000
 90
        0
280
     0
281
     0
  0
CLASS
  1
ACDBDICTIONARYWDFLT
  2
AcDbDictionaryWithDefault
  3
AutoCAD 2000
 90
        0
280
     0
281
     0
  0
CLASS
  1
ACDBPLACEHOLDER
  2
AcDbPlaceHolder
  3
AutoCAD 2000
 90
        0
280
     0
281
     0
  0
CLASS
  1
LAYOUT
  2
AcDbLayout
  3
AutoCAD 2000
 90
        0
280
     0
281
     0
  0
CLASS
  1
RASTERVARIABLES
  2
AcDbRasterVariables
  3
ISM
 90
        0
280
     0
281
     0
  0
CLASS
  1
IMAGEDEF
  2
AcDbRasterImageDef
  3
ISM
 90
        0
280
     0
281
     0
  0
CLASS
  1
IMAGEDEF_REACTOR
  2
AcDbRasterImageDefReactor
  3
ISM
 90
        1
280
     0
281
     0
  0
CLASS
  1
IMAGE
  2
AcDbRasterImage
  3
ISM
 90
      127
280
     0
281
     1
  0
CLASS
  1
LONG_TRANSACTION
  2
AcDbLongTransaction
  3
AutoCAD 2000
 90
        0
280
     0
281
     0
  0
CLASS
  1
LWPOLYLINE
  2
AcDbPolyline
  3
AutoCAD 2000
 90
        0
280
     0
281
     1
  0
CLASS
  1
HATCH
  2
AcDbHatch
  3
AutoCAD 2000
 90
        0
280
     0
281
     1
  0
CLASS
  1
XRECORD
  2
AcDbXrecord
  3
AutoCAD 2000
 90
        0
280
     0
281
     0
  0
ENDSEC
  0
SECTION
  2
TABLES
  0
TABLE
  2
VPORT
  5
12
330
0
100
AcDbSymbolTable
 70
     4
  0
VPORT
  5
988
330
12
100
AcDbSymbolTableRecord
100
AcDbViewportTableRecord
  2
*ACTIVE
 70
     0
 10
0.0
 20
0.0
 11
1.0
 21
1.0
 12
12.08341417761816
 22
7.012604344129984
 13
0.0
 23
0.0
 14
0.5
 24
0.5
 15
0.5
 25
0.5
 16
0.0
 26
0.0
 36
1.0
 17
0.0
 27
0.0
 37
0.0
 40
4.156670183943742
 41
2.05015197568389
 42
50.0
 43
0.0
 44
0.0
 50
0.0
 51
0.0
 71
     0
 72
   100
 73
     1
 74
     1
 75
     0
 76
     0
 77
     0
 78
     0
  0
ENDTAB
  0
TABLE
  2
LTYPE
  5
D
330
0
100
AcDbSymbolTable
 70
     1
  0
LTYPE
  5
E
330
D
100
AcDbSymbolTableRecord
100
AcDbLinetypeTableRecord
  2
BYBLOCK
 70
     0
  3

 72
    65
 73
     0
 40
0.0
  0
LTYPE
  5
F
330
D
100
AcDbSymbolTableRecord
100
AcDbLinetypeTableRecord
  2
BYLAYER
 70
     0
  3

 72
    65
 73
     0
 40
0.0
  0
LTYPE
  5
5
330
D
100
AcDbSymbolTableRecord
100
AcDbLinetypeTableRecord
  2
CONTINUOUS
 70
     0
  3
Solid line
 72
    65
 73
     0
 40
0.0
  0
ENDTAB
  0
TABLE
  2
LAYER
  5
A
330
0
100
AcDbSymbolTable
 70
     6
  0
LAYER
  5
4
330
A
100
AcDbSymbolTableRecord
100
AcDbLayerTableRecord
  2
0
 70
     0
 62
     7
  6
CONTINUOUS
  0
LAYER
  5
1F
330
A
100
AcDbSymbolTableRecord
100
AcDbLayerTableRecord
  2
PROFILE
 70
     0
 62
     3
  6
CONTINUOUS
  0
LAYER
  5
1B
330
A
100
AcDbSymbolTableRecord
100
AcDbLayerTableRecord
  2
DEFPOINTS
 70
     0
 62
     7
  6
CONTINUOUS
  0
LAYER
  5
27
330
A
100
AcDbSymbolTableRecord
100
AcDbLayerTableRecord
  2
TEXT
 70
     0
 62
     5
  6
CONTINUOUS
  0
LAYER
  5
28
330
A
100
AcDbSymbolTableRecord
100
AcDbLayerTableRecord
  2
DIMENSION
 70
     0
 62
     1
  6
CONTINUOUS
  0
LAYER
  5
750
330
A
100
AcDbSymbolTableRecord
100
AcDbLayerTableRecord
  2
ALL
 70
     0
 62
     7
  6
CONTINUOUS
  0
ENDTAB
  0
TABLE
  2
STYLE
  5
B
330
0
100
AcDbSymbolTable
 70
     3
  0
STYLE
  5
C
330
B
100
AcDbSymbolTableRecord
100
AcDbTextStyleTableRecord
  2
STANDARD
 70
     0
 40
0.0
 41
1.0
 50
0.0
 71
     0
 42
0.2
  3
txt
  4

  0
STYLE
  5
751
330
B
100
AcDbSymbolTableRecord
100
AcDbTextStyleTableRecord
  2
PANROMAN
 70
     0
 40
0.25
 41
1.25
 50
10.0
 71
     0
 42
0.25
  3
par_____.pfb
  4

  0
STYLE
  5
752
330
B
100
AcDbSymbolTableRecord
100
AcDbTextStyleTableRecord
  2
TEST
 70
     0
 40
0.0
 41
1.0
 50
0.0
 71
     0
 42
0.25
  3
ROMANC.SHX
  4

  0
ENDTAB
  0
TABLE
  2
VIEW
  5
10
330
0
100
AcDbSymbolTable
 70
     0
  0
ENDTAB
  0
TABLE
  2
UCS
  5
11
330
0
100
AcDbSymbolTable
 70
     0
  0
ENDTAB
  0
TABLE
  2
APPID
  5
14
330
0
100
AcDbSymbolTable
 70
     2
  0
APPID
  5
15
330
14
100
AcDbSymbolTableRecord
100
AcDbRegAppTableRecord
  2
ACAD
 70
     0
  0
APPID
  5
171
330
14
100
AcDbSymbolTableRecord
100
AcDbRegAppTableRecord
  2
NCPOLARIS_BASE
 70
     0
  0
ENDTAB
  0
TABLE
  2
DIMSTYLE
  5
16
330
0
100
AcDbSymbolTable
 70
     2
  0
DIMSTYLE
105
1D
330
16
100
AcDbSymbolTableRecord
100
AcDbDimStyleTableRecord
  2
STANDARD_WS
 70
     0
  3

  4

  5

  6

  7

 40
1.0
 41
0.18
 42
0.0625
 43
0.38
 44
0.18
 45
0.0
 46
0.0
 47
0.0
 48
0.0
140
0.18
141
0.09
142
0.0
143
25.4
144
1.0
145
0.0
146
1.0
147
0.09
 71
     0
 72
     0
 73
     1
 74
     1
 75
     0
 76
     0
 77
     0
 78
     0
170
     0
171
     2
172
     0
173
     0
174
     0
175
     0
176
     0
177
     0
178
     0
270
     2
271
     4
272
     4
273
     2
274
     2
340
C
275
     0
280
     0
281
     0
282
     0
283
     1
284
     0
285
     0
286
     0
287
     3
288
     0
  0
DIMSTYLE
105
39
330
16
100
AcDbSymbolTableRecord
100
AcDbDimStyleTableRecord
  2
STANDARD
 70
     0
  3

  4

  5

  6

  7

 40
1.0
 41
0.18
 42
0.0625
 43
0.38
 44
0.18
 45
0.0
 46
0.0
 47
0.0
 48
0.0
140
0.18
141
0.09
142
0.0
143
25.4
144
1.0
145
0.0
146
1.0
147
0.09
 71
     0
 72
     0
 73
     1
 74
     1
 75
     0
 76
     0
 77
     0
 78
     0
170
     0
171
     2
172
     0
173
     0
174
     0
175
     0
176
     0
177
     0
178
     0
270
     2
271
     4
272
     4
273
     2
274
     2
340
C
275
     0
280
     0
281
     0
282
     0
283
     1
284
     0
285
     0
286
     0
287
     3
288
     0
  0
ENDTAB
  0
TABLE
  2
BLOCK_RECORD
  5
1
330
0
100
AcDbSymbolTable
 70
     5
  0
BLOCK_RECORD
  5
2
102
{ACAD_XDICTIONARY
360
9AA
102
}
330
1
100
AcDbSymbolTableRecord
100
AcDbBlockTableRecord
  2
*MODEL_SPACE
  0
BLOCK_RECORD
  5
7
102
{ACAD_XDICTIONARY
360
9AC
102
}
330
1
100
AcDbSymbolTableRecord
100
AcDbBlockTableRecord
  2
*PAPER_SPACE
  0
BLOCK_RECORD
  5
3A
330
1
100
AcDbSymbolTableRecord
100
AcDbBlockTableRecord
  2
F
  0
BLOCK_RECORD
  5
8E
330
1
100
AcDbSymbolTableRecord
100
AcDbBlockTableRecord
  2
D
  0
BLOCK_RECORD
  5
AC
330
1
100
AcDbSymbolTableRecord
100
AcDbBlockTableRecord
  2
CCCROWN
  0
BLOCK_RECORD
  5
5B6
330
1
100
AcDbSymbolTableRecord
100
AcDbBlockTableRecord
  2
TRACK
  0
ENDTAB
  0
ENDSEC
  0
SECTION
  2
BLOCKS
  0
BLOCK
  5
3
330
2
100
AcDbEntity
  8
0
100
AcDbBlockBegin
  2
*MODEL_SPACE
 70
     0
 10
0.0
 20
0.0
 30
0.0
  3
*MODEL_SPACE
  1

  0
ENDBLK
  5
6
330
2
100
AcDbEntity
  8
0
100
AcDbBlockEnd
  0
BLOCK
  5
8
330
7
100
AcDbEntity
 67
     1
  8
0
100
AcDbBlockBegin
  2
*PAPER_SPACE
 70
     0
 10
0.0
 20
0.0
 30
0.0
  3
*PAPER_SPACE
  1

  0
ENDBLK
  5
9
330
7
100
AcDbEntity
 67
     1
  8
0
100
AcDbBlockEnd
  0
BLOCK
  5
46
330
3A
100
AcDbEntity
  8
0
100
AcDbBlockBegin
  2
F
 70
     0
 10
0.0
 20
0.0
 30
0.0
  3
F
  1

  0
CIRCLE
  5
3B
330
3A
100
AcDbEntity
  8
0
 62
     7
100
AcDbCircle
 10
0.0410665214247617
 20
-0.016701615976765
 30
0.0
 40
0.0183435
  0
CIRCLE
  5
3C
330
3A
100
AcDbEntity
  8
0
 62
     7
100
AcDbCircle
 10
0.0068044214247617
 20
-0.000720415976765
 30
0.0
 40
0.0194689
  0
CIRCLE
  5
3D
330
3A
100
AcDbEntity
  8
0
 62
     7
100
AcDbCircle
 10
0.0369728214247617
 20
-0.013878215976765
 30
0.0
 40
0.0139466
  0
CIRCLE
  5
3E
330
3A
100
AcDbEntity
  8
0
 62
     7
100
AcDbCircle
 10
0.1138706214247617
 20
0.0152964840232351
 30
0.0
 40
0.0058588
  0
LINE
  5
3F
330
3A
100
AcDbEntity
  8
0
 62
     7
100
AcDbLine
 10
0.1550692214247617
 20
-0.023509915976765
 30
0.0
 11
0.1179283214247617
 21
-0.024196615976765
 31
0.0
  0
LINE
  5
40
330
3A
100
AcDbEntity
  8
0
 62
     7
100
AcDbLine
 10
0.0092153214247617
 20
-0.029690015976765
 30
0.0
 11
0.0457186214247617
 21
-0.028454015976765
 31
0.0
  0
LINE
  5
41
330
3A
100
AcDbEntity
  8
0
 62
     7
100
AcDbLine
 10
0.0088965214247617
 20
-0.020076515976765
 30
0.0
 11
0.0092153214247617
 21
-0.029690015976765
 31
0.0
  0
LINE
  5
42
330
3A
100
AcDbEntity
  8
0
 62
     7
100
AcDbLine
 10
0.0353574214247617
 20
-0.000025415976765
 30
0.0
 11
0.0355168214247617
 21
0.009313484023235
 31
0.0
  0
LINE
  5
43
330
3A
100
AcDbEntity
  8
0
 62
     7
100
AcDbLine
 10
0.1196817214247617
 20
0.0160428840232351
 30
0.0
 11
0.1550692214247617
 21
0.0165922840232351
 31
0.0
  0
LINE
  5
44
330
3A
100
AcDbEntity
  8
0
 62
     7
100
AcDbLine
 10
0.1537940214247617
 20
-0.023235215976765
 30
0.0
 11
0.1526782214247617
 21
0.0172789840232351
 31
0.0
  0
LINE
  5
45
330
3A
100
AcDbEntity
  8
0
 62
     7
100
AcDbLine
 10
0.1142620214247617
 20
0.009450784023235
 30
0.0
 11
0.0363138214247617
 21
0.005193384023235
 31
0.0
  0
ENDBLK
  5
47
330
3A
100
AcDbEntity
  8
0
100
AcDbBlockEnd
  0
BLOCK
  5
9B
330
8E
100
AcDbEntity
  8
0
100
AcDbBlockBegin
  2
D
 70
     0
 10
0.0
 20
0.0
 30
0.0
  3
D
  1

  0
CIRCLE
  5
8F
330
8E
100
AcDbEntity
  8
0
 62
     7
100
AcDbCircle
 10
-0.1168512632442014
 20
0.0286128993414634
 30
0.0
 40
0.0184624
  0
CIRCLE
  5
90
330
8E
100
AcDbEntity
  8
0
 62
     7
100
AcDbCircle
 10
-0.1124979632442014
 20
0.0309464993414634
 30
0.0
 40
0.0254615
  0
CIRCLE
  5
91
330
8E
100
AcDbEntity
  8
0
 62
     7
100
AcDbCircle
 10
-0.1098053632442014
 20
0.0273971993414634
 30
0.0
 40
0.0219833
  0
LINE
  5
92
330
8E
100
AcDbEntity
  8
0
 62
     7
100
AcDbLine
 10
-0.1130932632442014
 20
0.0708659993414634
 30
0.0
 11
-0.1446799632442014
 21
0.0404778993414634
 31
0.0
  0
LINE
  5
93
330
8E
100
AcDbEntity
  8
0
 62
     7
100
AcDbLine
 10
-0.1297586632442014
 20
0.0418136993414634
 30
0.0
 11
-0.1400291632442014
 21
0.0504959993414634
 31
0.0
  0
LINE
  5
94
330
8E
100
AcDbEntity
  8
0
 62
     7
100
AcDbLine
 10
-0.1082487632442014
 20
0.0710328993414634
 30
0.0
 11
-0.0784060632442014
 21
0.0398100993414634
 31
0.0
  0
LINE
  5
95
330
8E
100
AcDbEntity
  8
0
 62
     7
100
AcDbLine
 10
-0.0920669632442015
 20
0.0403824993414634
 30
0.0
 11
-0.0844133632442015
 21
0.0478244993414634
 31
0.0
  0
LINE
  5
96
330
8E
100
AcDbEntity
  8
0
 62
     7
100
AcDbLine
 10
-0.0178829632442014
 20
0.0352731993414634
 30
0.0
 11
-0.0253094632442014
 21
0.0404778993414634
 31
0.0
  0
CIRCLE
  5
97
330
8E
100
AcDbEntity
  8
0
 62
     7
100
AcDbCircle
 10
-0.0019354632442014
 20
0.0279654993414634
 30
0.0
 40
0.0175421
  0
LINE
  5
98
330
8E
100
AcDbEntity
  8
0
 62
     7
100
AcDbLine
 10
-0.0253094632442014
 20
0.0404778993414634
 30
0.0
 11
-0.0074813632442014
 21
0.0643541993414634
 31
0.0
  0
LINE
  5
99
330
8E
100
AcDbEntity
  8
0
 62
     7
100
AcDbLine
 10
0.0161602367557986
 20
0.0461547993414634
 30
0.0
 11
-0.0074813632442014
 21
0.0643541993414634
 31
0.0
  0
LINE
  5
9A
330
8E
100
AcDbEntity
  8
0
 62
     7
100
AcDbLine
 10
0.0108860367557986
 20
0.0399377993414634
 30
0.0
 11
0.0161602367557986
 21
0.0461547993414634
 31
0.0
  0
ENDBLK
  5
9C
330
8E
100
AcDbEntity
  8
0
100
AcDbBlockEnd
  0
BLOCK
  5
BC
330
AC
100
AcDbEntity
  8
0
100
AcDbBlockBegin
  2
CCCROWN
 70
     0
 10
0.0
 20
0.0
 30
0.0
  3
CCCROWN
  1

  0
CIRCLE
  5
AD
330
AC
100
AcDbEntity
  8
0
 62
     7
100
AcDbCircle
 10
1.453151451829637
 20
0.6765280889605166
 30
0.0
 40
1.344812
  0
LINE
  5
AE
330
AC
100
AcDbEntity
  8
0
 62
     7
100
AcDbLine
 10
0.8618244518296375
 20
0.5174780889605167
 30
0.0
 11
0.8767584518296375
 21
-0.6765521110394835
 31
0.0
  0
LINE
  5
AF
330
AC
100
AcDbEntity
  8
0
 62
     7
100
AcDbLine
 10
0.2226365518296377
 20
0.5174780889605167
 30
0.0
 11
0.2226365518296377
 21
0.1609270889605165
 31
0.0
  0
CIRCLE
  5
B0
330
AC
100
AcDbEntity
  8
0
 62
     7
100
AcDbCircle
 10
0.0027955518296377
 20
-0.7486109110394834
 30
0.0
 40
0.6896503000000001
  0
CIRCLE
  5
B1
330
AC
100
AcDbEntity
  8
0
 62
     7
100
AcDbCircle
 10
0.4295939518296377
 20
0.0154420889605165
 30
0.0
 40
0.1281395
  0
LINE
  5
B2
330
AC
100
AcDbEntity
  8
0
 62
     7
100
AcDbLine
 10
0.2315971518296377
 20
0.1443430889605164
 30
0.0
 11
0.2584788518296377
 21
0.1388150889605166
 31
0.0
  0
LINE
  5
B3
330
AC
100
AcDbEntity
  8
0
 62
     7
100
AcDbLine
 10
0.2226365518296377
 20
0.1609270889605165
 30
0.0
 11
0.2315971518296377
 21
0.1443430889605164
 31
0.0
  0
LINE
  5
B4
330
AC
100
AcDbEntity
  8
0
 62
     7
100
AcDbLine
 10
0.2823736518296376
 20
0.1360510889605164
 30
0.0
 11
0.3480845518296377
 21
0.1305240889605166
 31
0.0
  0
LINE
  5
B5
330
AC
100
AcDbEntity
  8
0
 62
     7
100
AcDbLine
 10
0.2584788518296377
 20
0.1388150889605166
 30
0.0
 11
0.2823736518296376
 21
0.1360510889605164
 31
0.0
  0
LINE
  5
B6
330
AC
100
AcDbEntity
  8
0
 62
     7
100
AcDbLine
 10
0.3480845518296377
 20
0.1305240889605166
 30
0.0
 11
0.3510714518296377
 21
0.1167040889605164
 31
0.0
  0
LINE
  5
B7
330
AC
100
AcDbEntity
  8
0
 62
     7
100
AcDbLine
 10
0.8767584518296375
 20
-0.6765521110394835
 30
0.0
 11
0.7304024518296377
 21
-0.6793160110394835
 31
0.0
  0
LINE
  5
B8
330
AC
100
AcDbEntity
  8
0
 62
     7
100
AcDbLine
 10
0.6855994518296377
 20
-0.6572044110394835
 30
0.0
 11
0.6885863518296378
 21
-0.6378567110394835
 31
0.0
  0
LINE
  5
B9
330
AC
100
AcDbEntity
  8
0
 62
     7
100
AcDbLine
 10
0.7304024518296377
 20
-0.6793160110394835
 30
0.0
 11
0.7065074518296378
 21
-0.6737881110394835
 31
0.0
  0
LINE
  5
BA
330
AC
100
AcDbEntity
  8
0
 62
     7
100
AcDbLine
 10
0.7065074518296378
 20
-0.6737881110394835
 30
0.0
 11
0.6855994518296377
 21
-0.6572044110394835
 31
0.0
  0
LINE
  5
BB
330
AC
100
AcDbEntity
  8
0
 62
     7
100
AcDbLine
 10
0.2226365518296377
 20
0.5174780889605167
 30
0.0
 11
0.8618244518296375
 21
0.5174780889605167
 31
0.0
  0
ENDBLK
  5
BD
330
AC
100
AcDbEntity
  8
0
100
AcDbBlockEnd
  0
BLOCK
  5
5C3
330
5B6
100
AcDbEntity
  8
0
100
AcDbBlockBegin
  2
TRACK
 70
     0
 10
0.0
 20
0.0
 30
0.0
  3
TRACK
  1

  0
LINE
  5
5B7
330
5B6
100
AcDbEntity
  8
PROFILE
100
AcDbLine
 10
16.53207238374206
 20
4.044320932551642
 30
0.0
 11
16.53207238374207
 21
5.014320932551641
 31
0.0
  0
LINE
  5
5B8
330
5B6
100
AcDbEntity
  8
PROFILE
100
AcDbLine
 10
15.60207238374206
 20
4.044320932551642
 30
0.0
 11
15.60207238374206
 21
5.014320932551641
 31
0.0
  0
LINE
  5
5B9
330
5B6
100
AcDbEntity
  8
PROFILE
100
AcDbLine
 10
15.47707238374207
 20
3.919320932551641
 30
0.0
 11
15.47707238374206
 21
5.13932093255164
 31
0.0
  0
LINE
  5
5BA
330
5B6
100
AcDbEntity
  8
PROFILE
100
AcDbLine
 10
16.65707238374206
 20
3.919320932551642
 30
0.0
 11
16.65707238374206
 21
5.13932093255164
 31
0.0
  0
LINE
  5
5BB
330
5B6
100
AcDbEntity
  8
PROFILE
100
AcDbLine
 10
15.60207238374206
 20
4.044320932551642
 30
0.0
 11
15.81707238374206
 21
4.044320932551641
 31
0.0
  0
LINE
  5
5BC
330
5B6
100
AcDbEntity
  8
PROFILE
100
AcDbLine
 10
15.47707238374207
 20
3.919320932551641
 30
0.0
 11
15.81707238374206
 21
3.919320932551641
 31
0.0
  0
LINE
  5
5BD
330
5B6
100
AcDbEntity
  8
PROFILE
100
AcDbLine
 10
15.81707238374207
 20
3.919320932551642
 30
0.0
 11
15.81707238374206
 21
4.044320932551641
 31
0.0
  0
LINE
  5
5BE
330
5B6
100
AcDbEntity
  8
PROFILE
100
AcDbLine
 10
16.31707238374207
 20
3.919320932551641
 30
0.0
 11
16.65707238374206
 21
3.919320932551642
 31
0.0
  0
LINE
  5
5BF
330
5B6
100
AcDbEntity
  8
PROFILE
100
AcDbLine
 10
16.31707238374207
 20
3.919320932551642
 30
0.0
 11
16.31707238374206
 21
4.04432093255164
 31
0.0
  0
LINE
  5
5C0
330
5B6
100
AcDbEntity
  8
PROFILE
100
AcDbLine
 10
16.31707238374206
 20
4.04432093255164
 30
0.0
 11
16.53207238374206
 21
4.044320932551642
 31
0.0
  0
LINE
  5
5C1
330
5B6
100
AcDbEntity
  8
PROFILE
100
AcDbLine
 10
15.60207238374206
 20
5.014320932551641
 30
0.0
 11
16.53207238374207
 21
5.014320932551641
 31
0.0
  0
LINE
  5
5C2
330
5B6
100
AcDbEntity
  8
PROFILE
100
AcDbLine
 10
15.47707238374206
 20
5.13932093255164
 30
0.0
 11
16.65707238374206
 21
5.13932093255164
 31
0.0
  0
ENDBLK
  5
5C4
330
5B6
100
AcDbEntity
  8
0
100
AcDbBlockEnd
  0
ENDSEC
  0
SECTION
  2
ENTITIES
  0
POLYLINE
  5
8A3
330
2
100
AcDbEntity
  8
ALL
 62
     3
100
AcDb2dPolyline
 66
     1
 10
0.0
 20
0.0
 30
0.0
 70
     4
 75
     6
  0
VERTEX
  5
8A4
330
8A3
100
AcDbEntity
  8
ALL
 62
     3
100
AcDbVertex
100
AcDb2dVertex
 10
11.06069994008154
 20
8.437391603014201
 30
0.0
 70
    16
  0
VERTEX
  5
8A5
330
8A3
100
AcDbEntity
  8
ALL
 62
     3
100
AcDbVertex
100
AcDb2dVertex
 10
11.06069994008154
 20
8.437391603014201
 30
0.0
 70
     8
  0
VERTEX
  5
8A6
330
8A3
100
AcDbEntity
  8
ALL
 62
     3
100
AcDbVertex
100
AcDb2dVertex
 10
11.09024588688344
 20
8.430771750133015
 30
0.0
 70
     8
  0
VERTEX
  5
8A7
330
8A3
100
AcDbEntity
  8
ALL
 62
     3
100
AcDbVertex
100
AcDb2dVertex
 10
11.11809328737785
 20
8.423855985223649
 30
0.0
 70
     8
  0
VERTEX
  5
8A8
330
8A3
100
AcDbEntity
  8
ALL
 62
     3
100
AcDbVertex
100
AcDb2dVertex
 10
11.14427795804172
 20
8.41662091031436
 30
0.0
 70
     8
  0
VERTEX
  5
8A9
330
8A3
100
AcDbEntity
  8
ALL
 62
     3
100
AcDbVertex
100
AcDb2dVertex
 10
11.16883571535197
 20
8.409043127433431
 30
0.0
 70
     8
  0
VERTEX
  5
8AA
330
8A3
100
AcDbEntity
  8
ALL
 62
     3
100
AcDbVertex
100
AcDb2dVertex
 10
11.19180237578563
 20
8.401099238609088
 30
0.0
 70
     8
  0
VERTEX
  5
8AB
330
8A3
100
AcDbEntity
  8
ALL
 62
     3
100
AcDbVertex
100
AcDb2dVertex
 10
11.21321375581964
 20
8.392765845869586
 30
0.0
 70
     8
  0
VERTEX
  5
8AC
330
8A3
100
AcDbEntity
  8
ALL
 62
     3
100
AcDbVertex
100
AcDb2dVertex
 10
11.23310567193095
 20
8.384019551243209
 30
0.0
 70
     8
  0
VERTEX
  5
8AD
330
8A3
100
AcDbEntity
  8
ALL
 62
     3
100
AcDbVertex
100
AcDb2dVertex
 10
11.25151394059656
 20
8.374836956758183
 30
0.0
 70
     8
  0
VERTEX
  5
8AE
330
8A3
100
AcDbEntity
  8
ALL
 62
     3
100
AcDbVertex
100
AcDb2dVertex
 10
11.2684897087476
 20
8.365182273042858
 30
0.0
 70
     8
  0
VERTEX
  5
8AF
330
8A3
100
AcDbEntity
  8
ALL
 62
     3
100
AcDbVertex
100
AcDb2dVertex
 10
11.28414544513202
 20
8.354970145125985
 30
0.0
 70
     8
  0
VERTEX
  5
8B0
330
8A3
100
AcDbEntity
  8
ALL
 62
     3
100
AcDbVertex
100
AcDb2dVertex
 10
11.29860894895193
 20
8.344102826636412
 30
0.0
 70
     8
  0
VERTEX
  5
8B1
330
8A3
100
AcDbEntity
  8
ALL
 62
     3
100
AcDbVertex
100
AcDb2dVertex
 10
11.31200801940945
 20
8.332482571202955
 30
0.0
 70
     8
  0
VERTEX
  5
8B2
330
8A3
100
AcDbEntity
  8
ALL
 62
     3
100
AcDbVertex
100
AcDb2dVertex
 10
11.32447045570671
 20
8.320011632454519
 30
0.0
 70
     8
  0
VERTEX
  5
8B3
330
8A3
100
AcDbEntity
  8
ALL
 62
     3
100
AcDbVertex
100
AcDb2dVertex
 10
11.33612405704584
 20
8.306592264019894
 30
0.0
 70
     8
  0
VERTEX
  5
8B4
330
8A3
100
AcDbEntity
  8
ALL
 62
     3
100
AcDbVertex
100
AcDb2dVertex
 10
11.34709662262894
 20
8.292126719527924
 30
0.0
 70
     8
  0
VERTEX
  5
8B5
330
8A3
100
AcDbEntity
  8
ALL
 62
     3
100
AcDbVertex
100
AcDb2dVertex
 10
11.35751595165816
 20
8.276517252607458
 30
0.0
 70
     8
  0
VERTEX
  5
8B6
330
8A3
100
AcDbEntity
  8
ALL
 62
     3
100
AcDbVertex
100
AcDb2dVertex
 10
11.36747825464396
 20
8.259698648344663
 30
0.0
 70
     8
  0
VERTEX
  5
8B7
330
8A3
100
AcDbEntity
  8
ALL
 62
     3
100
AcDbVertex
100
AcDb2dVertex
 10
11.37695338733035
 20
8.241735817654937
 30
0.0
 70
     8
  0
VERTEX
  5
8B8
330
8A3
100
AcDbEntity
  8
ALL
 62
     3
100
AcDbVertex
100
AcDb2dVertex
 10
11.3858796167696
 20
8.222726202911001
 30
0.0
 70
     8
  0
VERTEX
  5
8B9
330
8A3
100
AcDbEntity
  8
ALL
 62
     3
100
AcDbVertex
100
AcDb2dVertex
 10
11.39419521001411
 20
8.202767246485603
 30
0.0
 70
     8
  0
VERTEX
  5
8BA
330
8A3
100
AcDbEntity
  8
ALL
 62
     3
100
AcDbVertex
100
AcDb2dVertex
 10
11.40183843411613
 20
8.181956390751434
 30
0.0
 70
     8
  0
VERTEX
  5
8BB
330
8A3
100
AcDbEntity
  8
ALL
 62
     3
100
AcDbVertex
100
AcDb2dVertex
 10
11.40874755612807
 20
8.160391078081214
 30
0.0
 70
     8
  0
VERTEX
  5
8BC
330
8A3
100
AcDbEntity
  8
ALL
 62
     3
100
AcDbVertex
100
AcDb2dVertex
 10
11.41486084310221
 20
8.138168750847722
 30
0.0
 70
     8
  0
VERTEX
  5
8BD
330
8A3
100
AcDbEntity
  8
ALL
 62
     3
100
AcDbVertex
100
AcDb2dVertex
 10
11.42011656209089
 20
8.11538685142359
 30
0.0
 70
     8
  0
VERTEX
  5
8BE
330
8A3
100
AcDbEntity
  8
ALL
 62
     3
100
AcDbVertex
100
AcDb2dVertex
 10
11.42445270844884
 20
8.092154158568416
 30
0.0
 70
     8
  0
VERTEX
  5
8BF
330
8A3
100
AcDbEntity
  8
ALL
 62
     3
100
AcDbVertex
100
AcDb2dVertex
 10
11.42780619074045
 20
8.068624796588789
 30
0.0
 70
     8
  0
VERTEX
  5
8C0
330
8A3
100
AcDbEntity
  8
ALL
 62
     3
100
AcDbVertex
100
AcDb2dVertex
 10
11.43011364583244
 20
8.044964226178176
 30
0.0
 70
     8
  0
VERTEX
  5
8C1
330
8A3
100
AcDbEntity
  8
ALL
 62
     3
100
AcDbVertex
100
AcDb2dVertex
 10
11.43131171059163
 20
8.021337908030016
 30
0.0
 70
     8
  0
VERTEX
  5
8C2
330
8A3
100
AcDbEntity
  8
ALL
 62
     3
100
AcDbVertex
100
AcDb2dVertex
 10
11.43133702188472
 20
7.997911302837718
 30
0.0
 70
     8
  0
VERTEX
  5
8C3
330
8A3
100
AcDbEntity
  8
ALL
 62
     3
100
AcDbVertex
100
AcDb2dVertex
 10
11.43012621657853
 20
7.974849871294748
 30
0.0
 70
     8
  0
VERTEX
  5
8C4
330
8A3
100
AcDbEntity
  8
ALL
 62
     3
100
AcDbVertex
100
AcDb2dVertex
 10
11.42761593153982
 20
7.952319074094543
 30
0.0
 70
     8
  0
VERTEX
  5
8C5
330
8A3
100
AcDbEntity
  8
ALL
 62
     3
100
AcDbVertex
100
AcDb2dVertex
 10
11.42374280363531
 20
7.930484371930544
 30
0.0
 70
     8
  0
VERTEX
  5
8C6
330
8A3
100
AcDbEntity
  8
ALL
 62
     3
100
AcDbVertex
100
AcDb2dVertex
 10
11.41848666054706
 20
7.90946633393288
 30
0.0
 70
     8
  0
VERTEX
  5
8C7
330
8A3
100
AcDbEntity
  8
ALL
 62
     3
100
AcDbVertex
100
AcDb2dVertex
 10
11.41200009321814
 20
7.889205962978746
 30
0.0
 70
     8
  0
VERTEX
  5
8C8
330
8A3
100
AcDbEntity
  8
ALL
 62
     3
100
AcDbVertex
100
AcDb2dVertex
 10
11.40447888340681
 20
7.86959937038203
 30
0.0
 70
     8
  0
VERTEX
  5
8C9
330
8A3
100
AcDbEntity
  8
ALL
 62
     3
100
AcDbVertex
100
AcDb2dVertex
 10
11.39611881287145
 20
7.850542667456562
 30
0.0
 70
     8
  0
VERTEX
  5
8CA
330
8A3
100
AcDbEntity
  8
ALL
 62
     3
100
AcDbVertex
100
AcDb2dVertex
 10
11.38711566337033
 20
7.831931965516287
 30
0.0
 70
     8
  0
VERTEX
  5
8CB
330
8A3
100
AcDbEntity
  8
ALL
 62
     3
100
AcDbVertex
100
AcDb2dVertex
 10
11.37766521666179
 20
7.813663375875063
 30
0.0
 70
     8
  0
VERTEX
  5
8CC
330
8A3
100
AcDbEntity
  8
ALL
 62
     3
100
AcDbVertex
100
AcDb2dVertex
 10
11.36796325450415
 20
7.795633009846778
 30
0.0
 70
     8
  0
VERTEX
  5
8CD
330
8A3
100
AcDbEntity
  8
ALL
 62
     3
100
AcDbVertex
100
AcDb2dVertex
 10
11.35820555865569
 20
7.777736978745292
 30
0.0
 70
     8
  0
VERTEX
  5
8CE
330
8A3
100
AcDbEntity
  8
ALL
 62
     3
100
AcDbVertex
100
AcDb2dVertex
 10
11.3485377045344
 20
7.759869681738604
 30
0.0
 70
     8
  0
VERTEX
  5
8CF
330
8A3
100
AcDbEntity
  8
ALL
 62
     3
100
AcDbVertex
100
AcDb2dVertex
 10
11.33890444219687
 20
7.741918669410932
 30
0.0
 70
     8
  0
VERTEX
  5
8D0
330
8A3
100
AcDbEntity
  8
ALL
 62
     3
100
AcDbVertex
100
AcDb2dVertex
 10
11.32920031535931
 20
7.723769780200581
 30
0.0
 70
     8
  0
VERTEX
  5
8D1
330
8A3
100
AcDbEntity
  8
ALL
 62
     3
100
AcDbVertex
100
AcDb2dVertex
 10
11.31931986773798
 20
7.705308852545909
 30
0.0
 70
     8
  0
VERTEX
  5
8D2
330
8A3
100
AcDbEntity
  8
ALL
 62
     3
100
AcDbVertex
100
AcDb2dVertex
 10
11.30915764304907
 20
7.68642172488519
 30
0.0
 70
     8
  0
VERTEX
  5
8D3
330
8A3
100
AcDbEntity
  8
ALL
 62
     3
100
AcDbVertex
100
AcDb2dVertex
 10
11.29860818500884
 20
7.666994235656756
 30
0.0
 70
     8
  0
VERTEX
  5
8D4
330
8A3
100
AcDbEntity
  8
ALL
 62
     3
100
AcDbVertex
100
AcDb2dVertex
 10
11.28756603733352
 20
7.646912223298909
 30
0.0
 70
     8
  0
VERTEX
  5
8D5
330
8A3
100
AcDbEntity
  8
ALL
 62
     3
100
AcDbVertex
100
AcDb2dVertex
 10
11.27592574373934
 20
7.626061526249981
 30
0.0
 70
     8
  0
VERTEX
  5
8D6
330
8A3
100
AcDbEntity
  8
ALL
 62
     3
100
AcDbVertex
100
AcDb2dVertex
 10
11.26362839901181
 20
7.604379910375723
 30
0.0
 70
     8
  0
VERTEX
  5
8D7
330
8A3
100
AcDbEntity
  8
ALL
 62
     3
100
AcDbVertex
100
AcDb2dVertex
 10
11.25080130221362
 20
7.582012851251431
 30
0.0
 70
     8
  0
VERTEX
  5
8D8
330
8A3
100
AcDbEntity
  8
ALL
 62
     3
100
AcDbVertex
100
AcDb2dVertex
 10
11.23761830347671
 20
7.559157751879848
 30
0.0
 70
     8
  0
VERTEX
  5
8D9
330
8A3
100
AcDbEntity
  8
ALL
 62
     3
100
AcDbVertex
100
AcDb2dVertex
 10
11.22425325293309
 20
7.536012015263776
 30
0.0
 70
     8
  0
VERTEX
  5
8DA
330
8A3
100
AcDbEntity
  8
ALL
 62
     3
100
AcDbVertex
100
AcDb2dVertex
 10
11.21088000071466
 20
7.512773044405929
 30
0.0
 70
     8
  0
VERTEX
  5
8DB
330
8A3
100
AcDbEntity
  8
ALL
 62
     3
100
AcDbVertex
100
AcDb2dVertex
 10
11.1976723969534
 20
7.489638242309081
 30
0.0
 70
     8
  0
VERTEX
  5
8DC
330
8A3
100
AcDbEntity
  8
ALL
 62
     3
100
AcDbVertex
100
AcDb2dVertex
 10
11.18480429178128
 20
7.466805011975947
 30
0.0
 70
     8
  0
VERTEX
  5
8DD
330
8A3
100
AcDbEntity
  8
ALL
 62
     3
100
AcDbVertex
100
AcDb2dVertex
 10
11.17244953533025
 20
7.444470756409327
 30
0.0
 70
     8
  0
VERTEX
  5
8DE
330
8A3
100
AcDbEntity
  8
ALL
 62
     3
100
AcDbVertex
100
AcDb2dVertex
 10
11.16074643174467
 20
7.422779605101351
 30
0.0
 70
     8
  0
VERTEX
  5
8DF
330
8A3
100
AcDbEntity
  8
ALL
 62
     3
100
AcDbVertex
100
AcDb2dVertex
 10
11.1496911012183
 20
7.401662593501993
 30
0.0
 70
     8
  0
VERTEX
  5
8E0
330
8A3
100
AcDbEntity
  8
ALL
 62
     3
100
AcDbVertex
100
AcDb2dVertex
 10
11.13924411795732
 20
7.380997483550584
 30
0.0
 70
     8
  0
VERTEX
  5
8E1
330
8A3
100
AcDbEntity
  8
ALL
 62
     3
100
AcDbVertex
100
AcDb2dVertex
 10
11.12936605616789
 20
7.360662037186455
 30
0.0
 70
     8
  0
VERTEX
  5
8E2
330
8A3
100
AcDbEntity
  8
ALL
 62
     3
100
AcDbVertex
100
AcDb2dVertex
 10
11.12001749005616
 20
7.340534016349022
 30
0.0
 70
     8
  0
VERTEX
  5
8E3
330
8A3
100
AcDbEntity
  8
ALL
 62
     3
100
AcDbVertex
100
AcDb2dVertex
 10
11.11115899382834
 20
7.320491182977616
 30
0.0
 70
     8
  0
VERTEX
  5
8E4
330
8A3
100
AcDbEntity
  8
ALL
 62
     3
100
AcDbVertex
100
AcDb2dVertex
 10
11.10275114169052
 20
7.300411299011568
 30
0.0
 70
     8
  0
VERTEX
  5
8E5
330
8A3
100
AcDbEntity
  8
ALL
 62
     3
100
AcDbVertex
100
AcDb2dVertex
 10
11.09475450784892
 20
7.280172126390266
 30
0.0
 70
     8
  0
VERTEX
  5
8E6
330
8A3
100
AcDbEntity
  8
ALL
 62
     3
100
AcDbVertex
100
AcDb2dVertex
 10
11.08714860056164
 20
7.259684049895168
 30
0.0
 70
     8
  0
VERTEX
  5
8E7
330
8A3
100
AcDbEntity
  8
ALL
 62
     3
100
AcDbVertex
100
AcDb2dVertex
 10
11.07998866429468
 20
7.238987945676211
 30
0.0
 70
     8
  0
VERTEX
  5
8E8
330
8A3
100
AcDbEntity
  8
ALL
 62
     3
100
AcDbVertex
100
AcDb2dVertex
 10
11.07334887756592
 20
7.21815731272535
 30
0.0
 70
     8
  0
VERTEX
  5
8E9
330
8A3
100
AcDbEntity
  8
ALL
 62
     3
100
AcDbVertex
100
AcDb2dVertex
 10
11.06730341889334
 20
7.197265650034677
 30
0.0
 70
     8
  0
VERTEX
  5
8EA
330
8A3
100
AcDbEntity
  8
ALL
 62
     3
100
AcDbVertex
100
AcDb2dVertex
 10
11.06192646679488
 20
7.176386456596174
 30
0.0
 70
     8
  0
VERTEX
  5
8EB
330
8A3
100
AcDbEntity
  8
ALL
 62
     3
100
AcDbVertex
100
AcDb2dVertex
 10
11.05729219978843
 20
7.155593231401877
 30
0.0
 70
     8
  0
VERTEX
  5
8EC
330
8A3
100
AcDbEntity
  8
ALL
 62
     3
100
AcDbVertex
100
AcDb2dVertex
 10
11.05347479639194
 20
7.134959473443768
 30
0.0
 70
     8
  0
VERTEX
  5
8ED
330
8A3
100
AcDbEntity
  8
ALL
 62
     3
100
AcDbVertex
100
AcDb2dVertex
 10
11.05054843512334
 20
7.114558681713913
 30
0.0
 70
     8
  0
VERTEX
  5
8EE
330
8A3
100
AcDbEntity
  8
ALL
 62
     3
100
AcDbVertex
100
AcDb2dVertex
 10
11.04856947208892
 20
7.094462170185363
 30
0.0
 70
     8
  0
VERTEX
  5
8EF
330
8A3
100
AcDbEntity
  8
ALL
 62
     3
100
AcDbVertex
100
AcDb2dVertex
 10
11.04752297374812
 20
7.074732512755372
 30
0.0
 70
     8
  0
VERTEX
  5
8F0
330
8A3
100
AcDbEntity
  8
ALL
 62
     3
100
AcDbVertex
100
AcDb2dVertex
 10
11.04737618414881
 20
7.055430098302179
 30
0.0
 70
     8
  0
VERTEX
  5
8F1
330
8A3
100
AcDbEntity
  8
ALL
 62
     3
100
AcDbVertex
100
AcDb2dVertex
 10
11.04809634733879
 20
7.036615315704051
 30
0.0
 70
     8
  0
VERTEX
  5
8F2
330
8A3
100
AcDbEntity
  8
ALL
 62
     3
100
AcDbVertex
100
AcDb2dVertex
 10
11.04965070736585
 20
7.018348553839314
 30
0.0
 70
     8
  0
VERTEX
  5
8F3
330
8A3
100
AcDbEntity
  8
ALL
 62
     3
100
AcDbVertex
100
AcDb2dVertex
 10
11.05200650827785
 20
7.000690201586235
 30
0.0
 70
     8
  0
VERTEX
  5
8F4
330
8A3
100
AcDbEntity
  8
ALL
 62
     3
100
AcDbVertex
100
AcDb2dVertex
 10
11.05513099412257
 20
6.983700647823082
 30
0.0
 70
     8
  0
VERTEX
  5
8F5
330
8A3
100
AcDbEntity
  8
ALL
 62
     3
100
AcDbVertex
100
AcDb2dVertex
 10
11.05899140894785
 20
6.967440281428122
 30
0.0
 70
     8
  0
VERTEX
  5
8F6
330
8A3
100
AcDbEntity
  8
ALL
 62
     3
100
AcDbVertex
100
AcDb2dVertex
 10
11.06357098684528
 20
6.951925372600595
 30
0.0
 70
     8
  0
VERTEX
  5
8F7
330
8A3
100
AcDbEntity
  8
ALL
 62
     3
100
AcDbVertex
100
AcDb2dVertex
 10
11.06891692208173
 20
6.936995716823457
 30
0.0
 70
     8
  0
VERTEX
  5
8F8
330
8A3
100
AcDbEntity
  8
ALL
 62
     3
100
AcDbVertex
100
AcDb2dVertex
 10
11.07509239896782
 20
6.922446990900721
 30
0.0
 70
     8
  0
VERTEX
  5
8F9
330
8A3
100
AcDbEntity
  8
ALL
 62
     3
100
AcDbVertex
100
AcDb2dVertex
 10
11.08216060181413
 20
6.908074871636284
 30
0.0
 70
     8
  0
VERTEX
  5
8FA
330
8A3
100
AcDbEntity
  8
ALL
 62
     3
100
AcDbVertex
100
AcDb2dVertex
 10
11.09018471493132
 20
6.893675035834104
 30
0.0
 70
     8
  0
VERTEX
  5
8FB
330
8A3
100
AcDbEntity
  8
ALL
 62
     3
100
AcDbVertex
100
AcDb2dVertex
 10
11.09922792263
 20
6.879043160298135
 30
0.0
 70
     8
  0
VERTEX
  5
8FC
330
8A3
100
AcDbEntity
  8
ALL
 62
     3
100
AcDbVertex
100
AcDb2dVertex
 10
11.10935340922082
 20
6.863974921832277
 30
0.0
 70
     8
  0
VERTEX
  5
8FD
330
8A3
100
AcDbEntity
  8
ALL
 62
     3
100
AcDbVertex
100
AcDb2dVertex
 10
11.12062435901438
 20
6.848265997240514
 30
0.0
 70
     8
  0
VERTEX
  5
8FE
330
8A3
100
AcDbEntity
  8
ALL
 62
     3
100
AcDbVertex
100
AcDb2dVertex
 10
11.14178569683175
 20
8.420112413171477
 30
0.0
 70
    16
  0
VERTEX
  5
8FF
330
8A3
100
AcDbEntity
  8
ALL
 62
     3
100
AcDbVertex
100
AcDb2dVertex
 10
11.26695747092989
 20
8.379740400282326
 30
0.0
 70
    16
  0
VERTEX
  5
900
330
8A3
100
AcDbEntity
  8
ALL
 62
     3
100
AcDbVertex
100
AcDb2dVertex
 10
11.36205395007703
 20
8.289761719803731
 30
0.0
 70
    16
  0
VERTEX
  5
901
330
8A3
100
AcDbEntity
  8
ALL
 62
     3
100
AcDbVertex
100
AcDb2dVertex
 10
11.42992243871088
 20
8.120316236147527
 30
0.0
 70
    16
  0
VERTEX
  5
902
330
8A3
100
AcDbEntity
  8
ALL
 62
     3
100
AcDbVertex
100
AcDb2dVertex
 10
11.43895566762471
 20
7.921294444147787
 30
0.0
 70
    16
  0
VERTEX
  5
903
330
8A3
100
AcDbEntity
  8
ALL
 62
     3
100
AcDbVertex
100
AcDb2dVertex
 10
11.35671171260218
 20
7.777412218844443
 30
0.0
 70
    16
  0
VERTEX
  5
904
330
8A3
100
AcDbEntity
  8
ALL
 62
     3
100
AcDbVertex
100
AcDb2dVertex
 10
11.28343083390074
 20
7.635478552946193
 30
0.0
 70
    16
  0
VERTEX
  5
905
330
8A3
100
AcDbEntity
  8
ALL
 62
     3
100
AcDbVertex
100
AcDb2dVertex
 10
11.16511941423095
 20
7.437042726870783
 30
0.0
 70
    16
  0
VERTEX
  5
906
330
8A3
100
AcDbEntity
  8
ALL
 62
     3
100
AcDbVertex
100
AcDb2dVertex
 10
11.09078872115704
 20
7.283175078026585
 30
0.0
 70
    16
  0
VERTEX
  5
907
330
8A3
100
AcDbEntity
  8
ALL
 62
     3
100
AcDbVertex
100
AcDb2dVertex
 10
11.04025274823447
 20
7.111289719364504
 30
0.0
 70
    16
  0
VERTEX
  5
908
330
8A3
100
AcDbEntity
  8
ALL
 62
     3
100
AcDbVertex
100
AcDb2dVertex
 10
11.05149089664524
 20
6.959018134798992
 30
0.0
 70
    16
  0
VERTEX
  5
909
330
8A3
100
AcDbEntity
  8
ALL
 62
     3
100
AcDbVertex
100
AcDb2dVertex
 10
11.08898504479619
 20
6.891192331605151
 30
0.0
 70
    16
  0
VERTEX
  5
90A
330
8A3
100
AcDbEntity
  8
ALL
 62
     3
100
AcDbVertex
100
AcDb2dVertex
 10
11.12062435901438
 20
6.848265997240514
 30
0.0
 70
    16
  0
SEQEND
  5
90B
330
8A3
100
AcDbEntity
  8
ALL
 62
     3
  0
LINE
  5
90C
330
2
100
AcDbEntity
  8
ALL
 62
     3
100
AcDbLine
 10
10.81470751223826
 20
8.705431277583738
 30
0.0
 11
10.81470751223826
 21
6.080431277583739
 31
0.0
  0
POLYLINE
  5
90D
330
2
100
AcDbEntity
  8
ALL
 62
     3
100
AcDb2dPolyline
 66
     1
 10
0.0
 20
0.0
 30
0.0
 70
     4
 75
     6
  0
VERTEX
  5
90E
330
90D
100
AcDbEntity
  8
ALL
 62
     3
100
AcDbVertex
100
AcDb2dVertex
 10
11.0263685974466
 20
6.688520625169627
 30
0.0
 70
    16
  0
VERTEX
  5
90F
330
90D
100
AcDbEntity
  8
ALL
 62
     3
100
AcDbVertex
100
AcDb2dVertex
 10
11.0263685974466
 20
6.688520625169627
 30
0.0
 70
     8
  0
VERTEX
  5
910
330
90D
100
AcDbEntity
  8
ALL
 62
     3
100
AcDbVertex
100
AcDb2dVertex
 10
11.04419104407159
 20
6.681176356563935
 30
0.0
 70
     8
  0
VERTEX
  5
911
330
90D
100
AcDbEntity
  8
ALL
 62
     3
100
AcDbVertex
100
AcDb2dVertex
 10
11.06049032502508
 20
6.674103367292883
 30
0.0
 70
     8
  0
VERTEX
  5
912
330
90D
100
AcDbEntity
  8
ALL
 62
     3
100
AcDbVertex
100
AcDb2dVertex
 10
11.07537335387424
 20
6.667099076110088
 30
0.0
 70
     8
  0
VERTEX
  5
913
330
90D
100
AcDbEntity
  8
ALL
 62
     3
100
AcDbVertex
100
AcDb2dVertex
 10
11.08894704418633
 20
6.659960901769221
 30
0.0
 70
     8
  0
VERTEX
  5
914
330
90D
100
AcDbEntity
  8
ALL
 62
     3
100
AcDbVertex
100
AcDb2dVertex
 10
11.10131830952848
 20
6.652486263023928
 30
0.0
 70
     8
  0
VERTEX
  5
915
330
90D
100
AcDbEntity
  8
ALL
 62
     3
100
AcDbVertex
100
AcDb2dVertex
 10
11.11259406346797
 20
6.644472578627824
 30
0.0
 70
     8
  0
VERTEX
  5
916
330
90D
100
AcDbEntity
  8
ALL
 62
     3
100
AcDbVertex
100
AcDb2dVertex
 10
11.12288121957197
 20
6.635717267334553
 30
0.0
 70
     8
  0
VERTEX
  5
917
330
90D
100
AcDbEntity
  8
ALL
 62
     3
100
AcDbVertex
100
AcDb2dVertex
 10
11.13228669140766
 20
6.626017747897759
 30
0.0
 70
     8
  0
VERTEX
  5
918
330
90D
100
AcDbEntity
  8
ALL
 62
     3
100
AcDbVertex
100
AcDb2dVertex
 10
11.14089434774518
 20
6.615230811681141
 30
0.0
 70
     8
  0
VERTEX
  5
919
330
90D
100
AcDbEntity
  8
ALL
 62
     3
100
AcDbVertex
100
AcDb2dVertex
 10
11.14869587816627
 20
6.603450740488637
 30
0.0
 70
     8
  0
VERTEX
  5
91A
330
90D
100
AcDbEntity
  8
ALL
 62
     3
100
AcDbVertex
100
AcDb2dVertex
 10
11.15565992745552
 20
6.590831188734239
 30
0.0
 70
     8
  0
VERTEX
  5
91B
330
90D
100
AcDbEntity
  8
ALL
 62
     3
100
AcDbVertex
100
AcDb2dVertex
 10
11.16175514039766
 20
6.577525810831969
 30
0.0
 70
     8
  0
VERTEX
  5
91C
330
90D
100
AcDbEntity
  8
ALL
 62
     3
100
AcDbVertex
100
AcDb2dVertex
 10
11.16695016177726
 20
6.563688261195818
 30
0.0
 70
     8
  0
VERTEX
  5
91D
330
90D
100
AcDbEntity
  8
ALL
 62
     3
100
AcDbVertex
100
AcDb2dVertex
 10
11.17121363637903
 20
6.549472194239752
 30
0.0
 70
     8
  0
VERTEX
  5
91E
330
90D
100
AcDbEntity
  8
ALL
 62
     3
100
AcDbVertex
100
AcDb2dVertex
 10
11.17451420898754
 20
6.535031264377818
 30
0.0
 70
     8
  0
VERTEX
  5
91F
330
90D
100
AcDbEntity
  8
ALL
 62
     3
100
AcDbVertex
100
AcDb2dVertex
 10
11.17682052438748
 20
6.520519126023981
 30
0.0
 70
     8
  0
VERTEX
  5
920
330
90D
100
AcDbEntity
  8
ALL
 62
     3
100
AcDbVertex
100
AcDb2dVertex
 10
11.17810553010127
 20
6.506074354254974
 30
0.0
 70
     8
  0
VERTEX
  5
921
330
90D
100
AcDbEntity
  8
ALL
 62
     3
100
AcDbVertex
100
AcDb2dVertex
 10
11.17835938460245
 20
6.491775206798206
 30
0.0
 70
     8
  0
VERTEX
  5
922
330
90D
100
AcDbEntity
  8
ALL
 62
     3
100
AcDbVertex
100
AcDb2dVertex
 10
11.1775765491024
 20
6.477684862043827
 30
0.0
 70
     8
  0
VERTEX
  5
923
330
90D
100
AcDbEntity
  8
ALL
 62
     3
100
AcDbVertex
100
AcDb2dVertex
 10
11.17575148481244
 20
6.463866498382015
 30
0.0
 70
     8
  0
VERTEX
  5
924
330
90D
100
AcDbEntity
  8
ALL
 62
     3
100
AcDbVertex
100
AcDb2dVertex
 10
11.17287865294394
 20
6.450383294202919
 30
0.0
 70
     8
  0
VERTEX
  5
925
330
90D
100
AcDbEntity
  8
ALL
 62
     3
100
AcDbVertex
100
AcDb2dVertex
 10
11.16895251470824
 20
6.437298427896661
 30
0.0
 70
     8
  0
VERTEX
  5
926
330
90D
100
AcDbEntity
  8
ALL
 62
     3
100
AcDbVertex
100
AcDb2dVertex
 10
11.16396753131666
 20
6.42467507785339
 30
0.0
 70
     8
  0
VERTEX
  5
927
330
90D
100
AcDbEntity
  8
ALL
 62
     3
100
AcDbVertex
100
AcDb2dVertex
 10
11.1579181639806
 20
6.412576422463286
 30
0.0
 70
     8
  0
VERTEX
  5
928
330
90D
100
AcDbEntity
  8
ALL
 62
     3
100
AcDbVertex
100
AcDb2dVertex
 10
11.15067422629661
 20
6.401003708490446
 30
0.0
 70
     8
  0
VERTEX
  5
929
330
90D
100
AcDbEntity
  8
ALL
 62
     3
100
AcDbVertex
100
AcDb2dVertex
 10
11.14160694140232
 20
6.389710456194831
 30
0.0
 70
     8
  0
VERTEX
  5
92A
330
90D
100
AcDbEntity
  8
ALL
 62
     3
100
AcDbVertex
100
AcDb2dVertex
 10
11.12996288482062
 20
6.378388254210432
 30
0.0
 70
     8
  0
VERTEX
  5
92B
330
90D
100
AcDbEntity
  8
ALL
 62
     3
100
AcDbVertex
100
AcDb2dVertex
 10
11.11498863207438
 20
6.366728691171215
 30
0.0
 70
     8
  0
VERTEX
  5
92C
330
90D
100
AcDbEntity
  8
ALL
 62
     3
100
AcDbVertex
100
AcDb2dVertex
 10
11.0959307586865
 20
6.354423355711117
 30
0.0
 70
     8
  0
VERTEX
  5
92D
330
90D
100
AcDbEntity
  8
ALL
 62
     3
100
AcDbVertex
100
AcDb2dVertex
 10
11.07203584017983
 20
6.341163836464102
 30
0.0
 70
     8
  0
VERTEX
  5
92E
330
90D
100
AcDbEntity
  8
ALL
 62
     3
100
AcDbVertex
100
AcDb2dVertex
 10
11.04255045207724
 20
6.326641722064135
 30
0.0
 70
     8
  0
VERTEX
  5
92F
330
90D
100
AcDbEntity
  8
ALL
 62
     3
100
AcDbVertex
100
AcDb2dVertex
 10
11.00672116990164
 20
6.310548601145154
 30
0.0
 70
     8
  0
VERTEX
  5
930
330
90D
100
AcDbEntity
  8
ALL
 62
     3
100
AcDbVertex
100
AcDb2dVertex
 10
11.0760210436239
 20
6.668394130889265
 30
0.0
 70
    16
  0
VERTEX
  5
931
330
90D
100
AcDbEntity
  8
ALL
 62
     3
100
AcDbVertex
100
AcDb2dVertex
 10
11.14055091221924
 20
6.638250168056527
 30
0.0
 70
    16
  0
VERTEX
  5
932
330
90D
100
AcDbEntity
  8
ALL
 62
     3
100
AcDbVertex
100
AcDb2dVertex
 10
11.18776039024282
 20
6.519639702854829
 30
0.0
 70
    16
  0
VERTEX
  5
933
330
90D
100
AcDbEntity
  8
ALL
 62
     3
100
AcDbVertex
100
AcDb2dVertex
 10
11.16933067313439
 20
6.406305776668159
 30
0.0
 70
    16
  0
VERTEX
  5
934
330
90D
100
AcDbEntity
  8
ALL
 62
     3
100
AcDbVertex
100
AcDb2dVertex
 10
11.11139415844694
 20
6.355832409057581
 30
0.0
 70
    16
  0
VERTEX
  5
935
330
90D
100
AcDbEntity
  8
ALL
 62
     3
100
AcDbVertex
100
AcDb2dVertex
 10
11.00672116990164
 20
6.310548601145154
 30
0.0
 70
    16
  0
SEQEND
  5
936
330
90D
100
AcDbEntity
  8
ALL
 62
     3
  0
LINE
  5
937
330
2
100
AcDbEntity
  8
ALL
 62
     3
100
AcDbLine
 10
10.81470751223826
 20
6.080431277583739
 30
0.0
 11
11.00220751223826
 21
6.080431277583739
 31
0.0
  0
LINE
  5
938
330
2
100
AcDbEntity
  8
ALL
 62
     3
100
AcDbLine
 10
11.00220751223826
 20
6.080431277583739
 30
0.0
 11
11.00220751223826
 21
6.308778063531105
 31
0.0
  0
LWPOLYLINE
  5
939
330
2
100
AcDbEntity
  8
ALL
 62
     3
100
AcDbPolyline
 90
        2
 70
     0
 43
0.0
 10
11.00672116990164
 20
6.310548601145154
 10
11.00220751223826
 20
6.308778063531105
  0
LINE
  5
93A
330
2
100
AcDbEntity
  8
ALL
 62
     3
100
AcDbLine
 10
11.12062435901438
 20
6.848265997240514
 30
0.0
 11
11.0263685974466
 21
6.688520625169627
 31
0.0
  0
LINE
  5
93B
330
2
100
AcDbEntity
  8
ALL
 62
     3
100
AcDbLine
 10
11.06069994008154
 20
8.527934844834174
 30
0.0
 11
11.06069994008154
 21
8.437391603014201
 31
0.0
  0
LINE
  5
93C
330
2
100
AcDbEntity
  8
ALL
 62
     3
100
AcDbLine
 10
10.81470751223826
 20
8.705431277583738
 30
0.0
 11
10.90845751223826
 21
8.705431277583738
 31
0.0
  0
POLYLINE
  5
93D
330
2
100
AcDbEntity
  8
ALL
 62
     3
100
AcDb2dPolyline
 66
     1
 10
0.0
 20
0.0
 30
0.0
 70
     4
 75
     6
  0
VERTEX
  5
93E
330
93D
100
AcDbEntity
  8
ALL
 62
     3
100
AcDbVertex
100
AcDb2dVertex
 10
10.90845751223826
 20
8.705431277583738
 30
0.0
 70
    16
  0
VERTEX
  5
93F
330
93D
100
AcDbEntity
  8
ALL
 62
     3
100
AcDbVertex
100
AcDb2dVertex
 10
10.90845751223826
 20
8.705431277583738
 30
0.0
 70
     8
  0
VERTEX
  5
940
330
93D
100
AcDbEntity
  8
ALL
 62
     3
100
AcDbVertex
100
AcDb2dVertex
 10
10.90937239156388
 20
8.693642959940017
 30
0.0
 70
     8
  0
VERTEX
  5
941
330
93D
100
AcDbEntity
  8
ALL
 62
     3
100
AcDbVertex
100
AcDb2dVertex
 10
10.91083022563668
 20
8.682635207280053
 30
0.0
 70
     8
  0
VERTEX
  5
942
330
93D
100
AcDbEntity
  8
ALL
 62
     3
100
AcDbVertex
100
AcDb2dVertex
 10
10.91279581167119
 20
8.672332957958314
 30
0.0
 70
     8
  0
VERTEX
  5
943
330
93D
100
AcDbEntity
  8
ALL
 62
     3
100
AcDbVertex
100
AcDb2dVertex
 10
10.915233946882
 20
8.66266115032938
 30
0.0
 70
     8
  0
VERTEX
  5
944
330
93D
100
AcDbEntity
  8
ALL
 62
     3
100
AcDbVertex
100
AcDb2dVertex
 10
10.91810942848371
 20
8.653544722747749
 30
0.0
 70
     8
  0
VERTEX
  5
945
330
93D
100
AcDbEntity
  8
ALL
 62
     3
100
AcDbVertex
100
AcDb2dVertex
 10
10.92138705369083
 20
8.644908613568002
 30
0.0
 70
     8
  0
VERTEX
  5
946
330
93D
100
AcDbEntity
  8
ALL
 62
     3
100
AcDbVertex
100
AcDb2dVertex
 10
10.92503161971793
 20
8.636677761144635
 30
0.0
 70
     8
  0
VERTEX
  5
947
330
93D
100
AcDbEntity
  8
ALL
 62
     3
100
AcDbVertex
100
AcDb2dVertex
 10
10.92900792377963
 20
8.628777103832202
 30
0.0
 70
     8
  0
VERTEX
  5
948
330
93D
100
AcDbEntity
  8
ALL
 62
     3
100
AcDbVertex
100
AcDb2dVertex
 10
10.93329517882809
 20
8.62113676405023
 30
0.0
 70
     8
  0
VERTEX
  5
949
330
93D
100
AcDbEntity
  8
ALL
 62
     3
100
AcDbVertex
100
AcDb2dVertex
 10
10.93793026076621
 20
8.613707600478317
 30
0.0
 70
     8
  0
VERTEX
  5
94A
330
93D
100
AcDbEntity
  8
ALL
 62
     3
100
AcDbVertex
100
AcDb2dVertex
 10
10.94296446123456
 20
8.606445655861062
 30
0.0
 70
     8
  0
VERTEX
  5
94B
330
93D
100
AcDbEntity
  8
ALL
 62
     3
100
AcDbVertex
100
AcDb2dVertex
 10
10.94844907187362
 20
8.599306972943065
 30
0.0
 70
     8
  0
VERTEX
  5
94C
330
93D
100
AcDbEntity
  8
ALL
 62
     3
100
AcDbVertex
100
AcDb2dVertex
 10
10.95443538432393
 20
8.592247594468926
 30
0.0
 70
     8
  0
VERTEX
  5
94D
330
93D
100
AcDbEntity
  8
ALL
 62
     3
100
AcDbVertex
100
AcDb2dVertex
 10
10.96097469022609
 20
8.585223563183216
 30
0.0
 70
     8
  0
VERTEX
  5
94E
330
93D
100
AcDbEntity
  8
ALL
 62
     3
100
AcDbVertex
100
AcDb2dVertex
 10
10.96811828122056
 20
8.578190921830536
 30
0.0
 70
     8
  0
VERTEX
  5
94F
330
93D
100
AcDbEntity
  8
ALL
 62
     3
100
AcDbVertex
100
AcDb2dVertex
 10
10.97591744894793
 20
8.571105713155514
 30
0.0
 70
     8
  0
VERTEX
  5
950
330
93D
100
AcDbEntity
  8
ALL
 62
     3
100
AcDbVertex
100
AcDb2dVertex
 10
10.98440909713866
 20
8.563964366807663
 30
0.0
 70
     8
  0
VERTEX
  5
951
330
93D
100
AcDbEntity
  8
ALL
 62
     3
100
AcDbVertex
100
AcDb2dVertex
 10
10.9935725778832
 20
8.556924860056323
 30
0.0
 70
     8
  0
VERTEX
  5
952
330
93D
100
AcDbEntity
  8
ALL
 62
     3
100
AcDbVertex
100
AcDb2dVertex
 10
11.00337285536192
 20
8.550185557075746
 30
0.0
 70
     8
  0
VERTEX
  5
953
330
93D
100
AcDbEntity
  8
ALL
 62
     3
100
AcDbVertex
100
AcDb2dVertex
 10
11.01377489375522
 20
8.543944822040241
 30
0.0
 70
     8
  0
VERTEX
  5
954
330
93D
100
AcDbEntity
  8
ALL
 62
     3
100
AcDbVertex
100
AcDb2dVertex
 10
11.02474365724344
 20
8.538401019124062
 30
0.0
 70
     8
  0
VERTEX
  5
955
330
93D
100
AcDbEntity
  8
ALL
 62
     3
100
AcDbVertex
100
AcDb2dVertex
 10
11.03624411000697
 20
8.533752512501461
 30
0.0
 70
     8
  0
VERTEX
  5
956
330
93D
100
AcDbEntity
  8
ALL
 62
     3
100
AcDbVertex
100
AcDb2dVertex
 10
11.04824121622621
 20
8.530197666346747
 30
0.0
 70
     8
  0
VERTEX
  5
957
330
93D
100
AcDbEntity
  8
ALL
 62
     3
100
AcDbVertex
100
AcDb2dVertex
 10
11.06069994008154
 20
8.527934844834174
 30
0.0
 70
     8
  0
VERTEX
  5
958
330
93D
100
AcDbEntity
  8
ALL
 62
     3
100
AcDbVertex
100
AcDb2dVertex
 10
10.91014195941218
 20
8.672888289092934
 30
0.0
 70
    16
  0
VERTEX
  5
959
330
93D
100
AcDbEntity
  8
ALL
 62
     3
100
AcDbVertex
100
AcDb2dVertex
 10
10.92584488112228
 20
8.62605568020059
 30
0.0
 70
    16
  0
VERTEX
  5
95A
330
93D
100
AcDbEntity
  8
ALL
 62
     3
100
AcDbVertex
100
AcDb2dVertex
 10
10.96837751963149
 20
8.572135308651677
 30
0.0
 70
    16
  0
VERTEX
  5
95B
330
93D
100
AcDbEntity
  8
ALL
 62
     3
100
AcDbVertex
100
AcDb2dVertex
 10
11.02689232923665
 20
8.532070012301044
 30
0.0
 70
    16
  0
VERTEX
  5
95C
330
93D
100
AcDbEntity
  8
ALL
 62
     3
100
AcDbVertex
100
AcDb2dVertex
 10
11.06069994008154
 20
8.527934844834174
 30
0.0
 70
    16
  0
SEQEND
  5
95D
330
93D
100
AcDbEntity
  8
ALL
 62
     3
  0
TEXT
  5
95E
330
2
100
AcDbEntity
  8
ALL
 62
     1
100
AcDbText
 10
10.58808196987663
 20
5.401455938377181
 30
0.0
 40
0.125
  1
BWP-4002
 41
1.25
  7
PANROMAN
 72
     1
 11
11.08264419454623
 21
5.401455938377181
 31
0.0
100
AcDbText
  0
TEXT
  5
95F
330
2
100
AcDbEntity
  8
ALL
 62
     1
100
AcDbText
 10
10.51121562311766
 20
5.25666451418454
 30
0.0
 40
0.075
  1
5/8" x 2 5/8"
 41
1.25
  7
TEST
 72
     1
 11
11.08264419454623
 21
5.25666451418454
 31
0.0
100
AcDbText
  0
VIEWPORT
  5
10F
330
7
100
AcDbEntity
 67
     1
  8
0
100
AcDbViewport
 10
7.329044117647058
 20
4.494742024799509
 30
0.0
 40
14.65808823529411
 41
9.0
 68
     1
 69
     1
1001
ACAD
1000
MVIEW
1002
{
1070
    16
1010
0.0
1020
0.0
1030
0.0
1010
0.0
1020
0.0
1030
1.0
1040
0.0
1040
9.0
1040
7.329044117647058
1040
4.494742024799509
1040
50.0
1040
0.0
1040
0.0
1070
     0
1070
   100
1070
     1
1070
     1
1070
     0
1070
     0
1070
     0
1070
     0
1040
0.0
1040
0.0
1040
0.0
1040
0.5
1040
0.5
1040
0.5
1040
0.5
1070
     0
1002
{
1002
}
1002
}
  0
ENDSEC
  0
SECTION
  2
OBJECTS
  0
DICTIONARY
  5
1A
330
0
100
AcDbDictionary
  3
ACAD_GROUP
350
18
  3
ACAD_IMAGE_DICT
350
1E2
  3
ACAD_IMAGE_VARS
350
1E3
  3
ACAD_LAYOUT
350
16B
  3
ACAD_MLINESTYLE
350
19
  3
ACAD_PLOTSETTINGS
350
16C
  3
ACAD_PLOTSTYLENAME
350
169
  3
ACDBHEADERROUNDTRIPXREC
350
989
  3
ACDBVARIABLEDICTIONARY
350
475
  3
DWGPROPS
350
172
  0
DICTIONARY
  5
9AA
330
2
100
AcDbDictionary
280
     1
  3
ACAD_LAYOUTSELFREF
360
9AB
  0
DICTIONARY
  5
9AC
330
7
100
AcDbDictionary
280
     1
  3
ACAD_LAYOUTSELFREF
360
9AD
  0
DICTIONARY
  5
18
102
{ACAD_REACTORS
330
1A
102
}
330
1A
100
AcDbDictionary
  0
DICTIONARY
  5
1E2
102
{ACAD_REACTORS
330
1A
102
}
330
1A
100
AcDbDictionary
  3
DARLIN
350
1E4
  3
SC
350
3D3
  0
RASTERVARIABLES
  5
1E3
102
{ACAD_REACTORS
330
1A
102
}
330
1A
100
AcDbRasterVariables
 90
        0
 70
     1
 71
     1
 72
     0
  0
DICTIONARY
  5
16B
102
{ACAD_REACTORS
330
1A
102
}
330
1A
100
AcDbDictionary
  0
DICTIONARY
  5
19
102
{ACAD_REACTORS
330
1A
102
}
330
1A
100
AcDbDictionary
  3
STANDARD
350
1C
  0
DICTIONARY
  5
16C
102
{ACAD_REACTORS
330
1A
102
}
330
1A
100
AcDbDictionary
  0
ACDBDICTIONARYWDFLT
  5
169
102
{ACAD_REACTORS
330
1A
102
}
330
1A
100
AcDbDictionary
281
     1
  3
Normal
350
16A
100
AcDbDictionaryWithDefault
340
16A
  0
DICTIONARY
  5
989
102
{ACAD_REACTORS
330
1A
102
}
330
1A
100
AcDbDictionary
  3
CEPSNTYPE
350
993
  3
DIMSTYLEDATA
350
997
  3
FINGERPRINTGUID
350
994
  3
HYPERLINKBASE
350
98C
  3
INSUNITS
350
992
  3
LAYOUTDICT
350
98E
  3
LWETCUNION
350
991
  3
PLOTSETDICT
350
98F
  3
PLOTSTYLNAMDICT
350
990
  3
PSVPSCALE
350
996
  3
PUCSBASE
350
99A
  3
PUCSORGBACK
350
9A0
  3
PUCSORGBOTTOM
350
99C
  3
PUCSORGFRONT
350
99F
  3
PUCSORGLEFT
350
99D
  3
PUCSORGRIGHT
350
99E
  3
PUCSORGTOP
350
99B
  3
PUCSORTHOREF
350
998
  3
PUCSORTHOVIEW
350
999
  3
STYLESHEET
350
98D
  3
TSTACKALIGN
350
98A
  3
TSTACKSIZE
350
98B
  3
UCSBASE
350
9A3
  3
UCSORGBACK
350
9A9
  3
UCSORGBOTTOM
350
9A5
  3
UCSORGFRONT
350
9A8
  3
UCSORGLEFT
350
9A6
  3
UCSORGRIGHT
350
9A7
  3
UCSORGTOP
350
9A4
  3
UCSORTHOREF
350
9A1
  3
UCSORTHOVIEW
350
9A2
  3
VERSIONGUID
350
995
  0
DICTIONARY
  5
475
102
{ACAD_REACTORS
330
1A
102
}
330
1A
100
AcDbDictionary
  3
DIMASSOC
350
476
  0
XRECORD
  5
172
102
{ACAD_REACTORS
330
1A
102
}
330
1A
100
AcDbXrecord
  1
DWGPROPS COOKIE
  2

  3

  4

  6

  7

  8
Benson Wood Products
  9

300
=
301
=
302
=
303
=
304
=
305
=
306
=
307
=
308
=
309
=
 40
0.1320853009259259
 41
2451257.51637963
 42
2453236.309322916
  1

 90
        0
  0
XRECORD
  5
9AB
102
{ACAD_REACTORS
330
9AA
102
}
330
9AA
100
AcDbXrecord
340
2
  0
XRECORD
  5
9AD
102
{ACAD_REACTORS
330
9AC
102
}
330
9AC
100
AcDbXrecord
340
7
  0
IMAGEDEF
  5
1E4
102
{ACAD_REACTORS
330
1E2
102
}
330
1E2
100
AcDbRasterImageDef
 90
        0
  1
C:\AutoCAD 2000i\scans\darlin.bmp
 10
661.0
 20
624.0
 11
0.0846668355628098
 21
0.0846668355628098
280
     1
281
     2
  0
IMAGEDEF
  5
3D3
102
{ACAD_REACTORS
330
1E2
102
}
330
1E2
100
AcDbRasterImageDef
 90
        0
  1
C:\AutoCAD 2000i\scans\sc.bmp
 10
1285.0
 20
1897.0
 11
0.0423334177814049
 21
0.0423334177814049
280
     1
281
     2
  0
MLINESTYLE
  5
1C
102
{ACAD_REACTORS
330
19
102
}
330
19
100
AcDbMlineStyle
  2
STANDARD
 70
     0
  3

 62
     0
 51
90.0
 52
90.0
 71
     2
 49
0.5
 62
   256
  6
BYLAYER
 49
-0.5
 62
   256
  6
BYLAYER
  0
ACDBPLACEHOLDER
  5
16A
102
{ACAD_REACTORS
330
169
102
}
330
169
100
AcDbPlaceHolder
280
     0
  0
XRECORD
  5
993
102
{ACAD_REACTORS
330
989
102
}
330
989
100
AcDbXrecord
 90
        0
  0
XRECORD
  5
997
102
{ACAD_REACTORS
330
989
102
}
330
989
100
AcDbXrecord
1000
DSTYLE
1002
{
1070
   179
 70
     3
1002
}
  0
XRECORD
  5
994
102
{ACAD_REACTORS
330
989
102
}
330
989
100
AcDbXrecord
  1
{89108230-6C88-44B9-880F-278BAA3B4DED}
  0
XRECORD
  5
98C
102
{ACAD_REACTORS
330
989
102
}
330
989
100
AcDbXrecord
  1

  0
XRECORD
  5
992
102
{ACAD_REACTORS
330
989
102
}
330
989
100
AcDbXrecord
 90
        0
  0
XRECORD
  5
98E
102
{ACAD_REACTORS
330
989
102
}
330
989
100
AcDbXrecord
340
16B
  0
XRECORD
  5
991
102
{ACAD_REACTORS
330
989
102
}
330
989
100
AcDbXrecord
 90
    10781
  0
XRECORD
  5
98F
102
{ACAD_REACTORS
330
989
102
}
330
989
100
AcDbXrecord
340
16C
  0
XRECORD
  5
990
102
{ACAD_REACTORS
330
989
102
}
330
989
100
AcDbXrecord
340
169
  0
XRECORD
  5
996
102
{ACAD_REACTORS
330
989
102
}
330
989
100
AcDbXrecord
 40
0.0
  0
XRECORD
  5
99A
102
{ACAD_REACTORS
330
989
102
}
330
989
100
AcDbXrecord
340
0
  0
XRECORD
  5
9A0
102
{ACAD_REACTORS
330
989
102
}
330
989
100
AcDbXrecord
 10
0.0
 20
0.0
 30
0.0
  0
XRECORD
  5
99C
102
{ACAD_REACTORS
330
989
102
}
330
989
100
AcDbXrecord
 10
0.0
 20
0.0
 30
0.0
  0
XRECORD
  5
99F
102
{ACAD_REACTORS
330
989
102
}
330
989
100
AcDbXrecord
 10
0.0
 20
0.0
 30
0.0
  0
XRECORD
  5
99D
102
{ACAD_REACTORS
330
989
102
}
330
989
100
AcDbXrecord
 10
0.0
 20
0.0
 30
0.0
  0
XRECORD
  5
99E
102
{ACAD_REACTORS
330
989
102
}
330
989
100
AcDbXrecord
 10
0.0
 20
0.0
 30
0.0
  0
XRECORD
  5
99B
102
{ACAD_REACTORS
330
989
102
}
330
989
100
AcDbXrecord
 10
0.0
 20
0.0
 30
0.0
  0
XRECORD
  5
998
102
{ACAD_REACTORS
330
989
102
}
330
989
100
AcDbXrecord
340
0
  0
XRECORD
  5
999
102
{ACAD_REACTORS
330
989
102
}
330
989
100
AcDbXrecord
 70
     0
  0
XRECORD
  5
98D
102
{ACAD_REACTORS
330
989
102
}
330
989
100
AcDbXrecord
  1
monochrome.ctb
  0
XRECORD
  5
98A
102
{ACAD_REACTORS
330
989
102
}
330
989
100
AcDbXrecord
 90
        1
  0
XRECORD
  5
98B
102
{ACAD_REACTORS
330
989
102
}
330
989
100
AcDbXrecord
 90
       70
  0
XRECORD
  5
9A3
102
{ACAD_REACTORS
330
989
102
}
330
989
100
AcDbXrecord
340
0
  0
XRECORD
  5
9A9
102
{ACAD_REACTORS
330
989
102
}
330
989
100
AcDbXrecord
 10
0.0
 20
0.0
 30
0.0
  0
XRECORD
  5
9A5
102
{ACAD_REACTORS
330
989
102
}
330
989
100
AcDbXrecord
 10
0.0
 20
0.0
 30
0.0
  0
XRECORD
  5
9A8
102
{ACAD_REACTORS
330
989
102
}
330
989
100
AcDbXrecord
 10
0.0
 20
0.0
 30
0.0
  0
XRECORD
  5
9A6
102
{ACAD_REACTORS
330
989
102
}
330
989
100
AcDbXrecord
 10
0.0
 20
0.0
 30
0.0
  0
XRECORD
  5
9A7
102
{ACAD_REACTORS
330
989
102
}
330
989
100
AcDbXrecord
 10
0.0
 20
0.0
 30
0.0
  0
XRECORD
  5
9A4
102
{ACAD_REACTORS
330
989
102
}
330
989
100
AcDbXrecord
 10
0.0
 20
0.0
 30
0.0
  0
XRECORD
  5
9A1
102
{ACAD_REACTORS
330
989
102
}
330
989
100
AcDbXrecord
340
0
  0
XRECORD
  5
9A2
102
{ACAD_REACTORS
330
989
102
}
330
989
100
AcDbXrecord
 70
     0
  0
XRECORD
  5
995
102
{ACAD_REACTORS
330
989
102
}
330
989
100
AcDbXrecord
  1
{A02F6084-2B04-4155-B784-E0202E14CC7B}
  0
DICTIONARYVAR
  5
476
102
{ACAD_REACTORS
330
475
102
}
330
475
100
DictionaryVariables
280
     0
  1
1
  0
ENDSEC
  0
EOF
