  0
SECTION
  2
HEADER
  9
$ACADVER
  1
AC1015
  9
$ACADMAINTVER
 70
    13
  9
$DWGCODEPAGE
  3
ANSI_1252
  9
$INSBASE
 10
0.0
 20
0.0
 30
0.0
  9
$EXTMIN
 10
10.0933227935961
 20
4.819546861504967
 30
-0.0015258207003583
  9
$EXTMAX
 10
11.08300783937215
 20
8.694735328038937
 30
0.0000000349246037
  9
$LIMMIN
 10
0.0
 20
0.0
  9
$LIMMAX
 10
12.0
 20
9.0
  9
$ORTHOMODE
 70
     0
  9
$REGENMODE
 70
     1
  9
$FILLMODE
 70
     1
  9
$QTEXTMODE
 70
     0
  9
$MIRRTEXT
 70
     1
  9
$LTSCALE
 40
1.0
  9
$ATTMODE
 70
     1
  9
$TEXTSIZE
 40
0.2
  9
$TRACEWID
 40
0.05
  9
$TEXTSTYLE
  7
STANDARD
  9
$CLAYER
  8
PROFILE
  9
$CELTYPE
  6
BYLAYER
  9
$CECOLOR
 62
   256
  9
$CELTSCALE
 40
1.0
  9
$DISPSILH
 70
     0
  9
$DIMSCALE
 40
1.0
  9
$DIMASZ
 40
0.18
  9
$DIMEXO
 40
0.0625
  9
$DIMDLI
 40
0.38
  9
$DIMRND
 40
0.0
  9
$DIMDLE
 40
0.0
  9
$DIMEXE
 40
0.18
  9
$DIMTP
 40
0.0
  9
$DIMTM
 40
0.0
  9
$DIMTXT
 40
0.18
  9
$DIMCEN
 40
0.09
  9
$DIMTSZ
 40
0.0
  9
$DIMTOL
 70
     0
  9
$DIMLIM
 70
     0
  9
$DIMTIH
 70
     1
  9
$DIMTOH
 70
     1
  9
$DIMSE1
 70
     0
  9
$DIMSE2
 70
     0
  9
$DIMTAD
 70
     0
  9
$DIMZIN
 70
     0
  9
$DIMBLK
  1

  9
$DIMASO
 70
     1
  9
$DIMSHO
 70
     1
  9
$DIMPOST
  1

  9
$DIMAPOST
  1

  9
$DIMALT
 70
     0
  9
$DIMALTD
 70
     2
  9
$DIMALTF
 40
25.4
  9
$DIMLFAC
 40
1.0
  9
$DIMTOFL
 70
     0
  9
$DIMTVP
 40
0.0
  9
$DIMTIX
 70
     0
  9
$DIMSOXD
 70
     0
  9
$DIMSAH
 70
     0
  9
$DIMBLK1
  1

  9
$DIMBLK2
  1

  9
$DIMSTYLE
  2
STANDARD_WS
  9
$DIMCLRD
 70
     0
  9
$DIMCLRE
 70
     0
  9
$DIMCLRT
 70
     0
  9
$DIMTFAC
 40
1.0
  9
$DIMGAP
 40
0.09
  9
$DIMJUST
 70
     0
  9
$DIMSD1
 70
     0
  9
$DIMSD2
 70
     0
  9
$DIMTOLJ
 70
     1
  9
$DIMTZIN
 70
     0
  9
$DIMALTZ
 70
     0
  9
$DIMALTTZ
 70
     0
  9
$DIMUPT
 70
     0
  9
$DIMDEC
 70
     4
  9
$DIMTDEC
 70
     4
  9
$DIMALTU
 70
     2
  9
$DIMALTTD
 70
     2
  9
$DIMTXSTY
  7
STANDARD
  9
$DIMAUNIT
 70
     0
  9
$DIMADEC
 70
     3
  9
$DIMALTRND
 40
0.0
  9
$DIMAZIN
 70
     0
  9
$DIMDSEP
 70
    46
  9
$DIMATFIT
 70
     3
  9
$DIMFRAC
 70
     0
  9
$DIMLDRBLK
  1

  9
$DIMLUNIT
 70
     2
  9
$DIMLWD
 70
    -2
  9
$DIMLWE
 70
    -2
  9
$DIMTMOVE
 70
     0
  9
$LUNITS
 70
     2
  9
$LUPREC
 70
     4
  9
$SKETCHINC
 40
0.1
  9
$FILLETRAD
 40
0.0
  9
$AUNITS
 70
     0
  9
$AUPREC
 70
     4
  9
$MENU
  1
.
  9
$ELEVATION
 40
0.0
  9
$PELEVATION
 40
0.0
  9
$THICKNESS
 40
0.0
  9
$LIMCHECK
 70
     0
  9
$CHAMFERA
 40
0.5
  9
$CHAMFERB
 40
0.5
  9
$CHAMFERC
 40
1.0
  9
$CHAMFERD
 40
0.0
  9
$SKPOLY
 70
     1
  9
$TDCREATE
 40
2451257.516379630
  9
$TDUCREATE
 40
2451257.724712962
  9
$TDUPDATE
 40
2454930.587008715
  9
$TDUUPDATE
 40
2454930.795342048
  9
$TDINDWG
 40
5.0497211690
  9
$TDUSRTIMER
 40
5.0497211690
  9
$USRTIMER
 70
     1
  9
$ANGBASE
 50
0.0
  9
$ANGDIR
 70
     0
  9
$PDMODE
 70
     0
  9
$PDSIZE
 40
0.0
  9
$PLINEWID
 40
0.0
  9
$SPLFRAME
 70
     0
  9
$SPLINETYPE
 70
     6
  9
$SPLINESEGS
 70
     8
  9
$HANDSEED
  5
809
  9
$SURFTAB1
 70
     6
  9
$SURFTAB2
 70
     6
  9
$SURFTYPE
 70
     6
  9
$SURFU
 70
     6
  9
$SURFV
 70
     6
  9
$UCSBASE
  2

  9
$UCSNAME
  2

  9
$UCSORG
 10
0.0
 20
0.0
 30
0.0
  9
$UCSXDIR
 10
1.0
 20
0.0
 30
0.0
  9
$UCSYDIR
 10
0.0
 20
1.0
 30
0.0
  9
$UCSORTHOREF
  2

  9
$UCSORTHOVIEW
 70
     0
  9
$UCSORGTOP
 10
0.0
 20
0.0
 30
0.0
  9
$UCSORGBOTTOM
 10
0.0
 20
0.0
 30
0.0
  9
$UCSORGLEFT
 10
0.0
 20
0.0
 30
0.0
  9
$UCSORGRIGHT
 10
0.0
 20
0.0
 30
0.0
  9
$UCSORGFRONT
 10
0.0
 20
0.0
 30
0.0
  9
$UCSORGBACK
 10
0.0
 20
0.0
 30
0.0
  9
$PUCSBASE
  2

  9
$PUCSNAME
  2

  9
$PUCSORG
 10
0.0
 20
0.0
 30
0.0
  9
$PUCSXDIR
 10
1.0
 20
0.0
 30
0.0
  9
$PUCSYDIR
 10
0.0
 20
1.0
 30
0.0
  9
$PUCSORTHOREF
  2

  9
$PUCSORTHOVIEW
 70
     0
  9
$PUCSORGTOP
 10
0.0
 20
0.0
 30
0.0
  9
$PUCSORGBOTTOM
 10
0.0
 20
0.0
 30
0.0
  9
$PUCSORGLEFT
 10
0.0
 20
0.0
 30
0.0
  9
$PUCSORGRIGHT
 10
0.0
 20
0.0
 30
0.0
  9
$PUCSORGFRONT
 10
0.0
 20
0.0
 30
0.0
  9
$PUCSORGBACK
 10
0.0
 20
0.0
 30
0.0
  9
$USERI1
 70
     0
  9
$USERI2
 70
     0
  9
$USERI3
 70
     0
  9
$USERI4
 70
     0
  9
$USERI5
 70
     0
  9
$USERR1
 40
0.0
  9
$USERR2
 40
0.0
  9
$USERR3
 40
0.0
  9
$USERR4
 40
0.0
  9
$USERR5
 40
0.0
  9
$WORLDVIEW
 70
     1
  9
$SHADEDGE
 70
     3
  9
$SHADEDIF
 70
    70
  9
$TILEMODE
 70
     1
  9
$MAXACTVP
 70
    48
  9
$PINSBASE
 10
0.0
 20
0.0
 30
0.0
  9
$PLIMCHECK
 70
     0
  9
$PEXTMIN
 10
1.000000000000000E+20
 20
1.000000000000000E+20
 30
1.000000000000000E+20
  9
$PEXTMAX
 10
-1.000000000000000E+20
 20
-1.000000000000000E+20
 30
-1.000000000000000E+20
  9
$PLIMMIN
 10
0.0
 20
0.0
  9
$PLIMMAX
 10
12.0
 20
9.0
  9
$UNITMODE
 70
     0
  9
$VISRETAIN
 70
     0
  9
$PLINEGEN
 70
     0
  9
$PSLTSCALE
 70
     1
  9
$TREEDEPTH
 70
  3020
  9
$CMLSTYLE
  2
STANDARD
  9
$CMLJUST
 70
     0
  9
$CMLSCALE
 40
1.0
  9
$PROXYGRAPHICS
 70
     1
  9
$MEASUREMENT
 70
     0
  9
$CELWEIGHT
370
    -1
  9
$ENDCAPS
280
     0
  9
$JOINSTYLE
280
     0
  9
$LWDISPLAY
290
     0
  9
$INSUNITS
 70
     0
  9
$HYPERLINKBASE
  1

  9
$STYLESHEET
  1
monochrome.ctb
  9
$XEDIT
290
     1
  9
$CEPSNTYPE
380
     0
  9
$PSTYLEMODE
290
     1
  9
$FINGERPRINTGUID
  2
{89108230-6C88-44B9-880F-278BAA3B4DED}
  9
$VERSIONGUID
  2
{88AF23FE-879B-4204-98FD-21367AAF1C05}
  9
$EXTNAMES
290
     1
  9
$PSVPSCALE
 40
0.0
  9
$OLESTARTUP
290
     0
  0
ENDSEC
  0
SECTION
  2
CLASSES
  0
CLASS
  1
DICTIONARYVAR
  2
AcDbDictionaryVar
  3
AutoCAD 2000
 90
        0
280
     0
281
     0
  0
CLASS
  1
ACDBDICTIONARYWDFLT
  2
AcDbDictionaryWithDefault
  3
AutoCAD 2000
 90
        0
280
     0
281
     0
  0
CLASS
  1
ACDBPLACEHOLDER
  2
AcDbPlaceHolder
  3
AutoCAD 2000
 90
        0
280
     0
281
     0
  0
CLASS
  1
LAYOUT
  2
AcDbLayout
  3
AutoCAD 2000
 90
        0
280
     0
281
     0
  0
CLASS
  1
RASTERVARIABLES
  2
AcDbRasterVariables
  3
ISM
 90
        0
280
     0
281
     0
  0
CLASS
  1
IMAGEDEF
  2
AcDbRasterImageDef
  3
ISM
 90
        0
280
     0
281
     0
  0
CLASS
  1
IMAGEDEF_REACTOR
  2
AcDbRasterImageDefReactor
  3
ISM
 90
    32769
280
     0
281
     0
  0
CLASS
  1
IMAGE
  2
AcDbRasterImage
  3
ISM
 90
    32895
280
     0
281
     1
  0
ENDSEC
  0
SECTION
  2
TABLES
  0
TABLE
  2
VPORT
  5
12
330
0
100
AcDbSymbolTable
 70
     5
  0
VPORT
  5
808
330
12
100
AcDbSymbolTableRecord
100
AcDbViewportTableRecord
  2
*Active
 70
     0
 10
0.0
 20
0.0
 11
1.0
 21
1.0
 12
12.63726589350808
 22
6.524722590027202
 13
0.0
 23
0.0
 14
0.5
 24
0.5
 15
0.5
 25
0.5
 16
0.0
 26
0.0
 36
1.0
 17
0.0
 27
0.0
 37
0.0
 40
6.455494383733733
 41
2.05015197568389
 42
50.0
 43
0.0
 44
0.0
 50
0.0
 51
0.0
 71
     0
 72
   100
 73
     1
 74
     1
 75
     0
 76
     0
 77
     0
 78
     0
281
     0
 65
     1
110
0.0
120
0.0
130
0.0
111
1.0
121
0.0
131
0.0
112
0.0
122
1.0
132
0.0
 79
     0
146
0.0
  0
ENDTAB
  0
TABLE
  2
LTYPE
  5
D
330
0
100
AcDbSymbolTable
 70
     1
  0
LTYPE
  5
E
330
D
100
AcDbSymbolTableRecord
100
AcDbLinetypeTableRecord
  2
BYBLOCK
 70
     0
  3

 72
    65
 73
     0
 40
0.0
  0
LTYPE
  5
F
330
D
100
AcDbSymbolTableRecord
100
AcDbLinetypeTableRecord
  2
BYLAYER
 70
     0
  3

 72
    65
 73
     0
 40
0.0
  0
LTYPE
  5
5
330
D
100
AcDbSymbolTableRecord
100
AcDbLinetypeTableRecord
  2
CONTINUOUS
 70
     0
  3
Solid line
 72
    65
 73
     0
 40
0.0
  0
ENDTAB
  0
TABLE
  2
LAYER
  5
A
330
0
100
AcDbSymbolTable
 70
     6
  0
LAYER
  5
4
330
A
100
AcDbSymbolTableRecord
100
AcDbLayerTableRecord
  2
0
 70
     0
 62
     7
  6
CONTINUOUS
370
    -3
390
16A
  0
LAYER
  5
1F
330
A
100
AcDbSymbolTableRecord
100
AcDbLayerTableRecord
  2
PROFILE
 70
     0
 62
     3
  6
CONTINUOUS
370
    -3
390
16A
  0
LAYER
  5
1B
330
A
100
AcDbSymbolTableRecord
100
AcDbLayerTableRecord
  2
DEFPOINTS
 70
     0
 62
     7
  6
CONTINUOUS
290
     0
370
    -3
390
16A
  0
LAYER
  5
27
330
A
100
AcDbSymbolTableRecord
100
AcDbLayerTableRecord
  2
TEXT
 70
     0
 62
     5
  6
CONTINUOUS
370
    -3
390
16A
  0
LAYER
  5
28
330
A
100
AcDbSymbolTableRecord
100
AcDbLayerTableRecord
  2
DIMENSION
 70
     0
 62
     1
  6
CONTINUOUS
370
    -3
390
16A
  0
LAYER
  5
750
330
A
100
AcDbSymbolTableRecord
100
AcDbLayerTableRecord
  2
ALL
 70
     0
 62
     7
  6
CONTINUOUS
370
    -3
390
16A
  0
ENDTAB
  0
TABLE
  2
STYLE
  5
B
330
0
100
AcDbSymbolTable
 70
     3
  0
STYLE
  5
C
330
B
100
AcDbSymbolTableRecord
100
AcDbTextStyleTableRecord
  2
STANDARD
 70
     0
 40
0.0
 41
1.0
 50
0.0
 71
     0
 42
0.2
  3
txt
  4

  0
STYLE
  5
751
330
B
100
AcDbSymbolTableRecord
100
AcDbTextStyleTableRecord
  2
PANROMAN
 70
     0
 40
0.25
 41
1.25
 50
10.0
 71
     0
 42
0.25
  3
par_____.pfb
  4

  0
STYLE
  5
752
330
B
100
AcDbSymbolTableRecord
100
AcDbTextStyleTableRecord
  2
TEST
 70
     0
 40
0.0
 41
1.0
 50
0.0
 71
     0
 42
0.25
  3
ROMANC.SHX
  4

  0
ENDTAB
  0
TABLE
  2
VIEW
  5
10
330
0
100
AcDbSymbolTable
 70
     0
  0
ENDTAB
  0
TABLE
  2
UCS
  5
11
330
0
100
AcDbSymbolTable
 70
     0
  0
ENDTAB
  0
TABLE
  2
APPID
  5
14
330
0
100
AcDbSymbolTable
 70
     2
  0
APPID
  5
15
330
14
100
AcDbSymbolTableRecord
100
AcDbRegAppTableRecord
  2
ACAD
 70
     0
  0
APPID
  5
171
330
14
100
AcDbSymbolTableRecord
100
AcDbRegAppTableRecord
  2
NCPOLARIS_BASE
 70
     0
  0
ENDTAB
  0
TABLE
  2
DIMSTYLE
  5
16
330
0
100
AcDbSymbolTable
 70
     2
100
AcDbDimStyleTable
 71
     1
340
1D
  0
DIMSTYLE
105
1D
330
16
100
AcDbSymbolTableRecord
100
AcDbDimStyleTableRecord
  2
STANDARD_WS
 70
     0
179
     3
340
C
  0
DIMSTYLE
105
39
330
16
100
AcDbSymbolTableRecord
100
AcDbDimStyleTableRecord
  2
STANDARD
 70
     0
340
C
  0
ENDTAB
  0
TABLE
  2
BLOCK_RECORD
  5
1
330
0
100
AcDbSymbolTable
 70
     5
  0
BLOCK_RECORD
  5
2
330
1
100
AcDbSymbolTableRecord
100
AcDbBlockTableRecord
  2
*MODEL_SPACE
340
16D
  0
BLOCK_RECORD
  5
7
330
1
100
AcDbSymbolTableRecord
100
AcDbBlockTableRecord
  2
*PAPER_SPACE
340
16E
  0
BLOCK_RECORD
  5
3A
330
1
100
AcDbSymbolTableRecord
100
AcDbBlockTableRecord
  2
F
340
0
  0
BLOCK_RECORD
  5
8E
330
1
100
AcDbSymbolTableRecord
100
AcDbBlockTableRecord
  2
D
340
0
  0
BLOCK_RECORD
  5
AC
330
1
100
AcDbSymbolTableRecord
100
AcDbBlockTableRecord
  2
CCCROWN
340
0
  0
BLOCK_RECORD
  5
5B6
330
1
100
AcDbSymbolTableRecord
100
AcDbBlockTableRecord
  2
track
340
0
  0
ENDTAB
  0
ENDSEC
  0
SECTION
  2
BLOCKS
  0
BLOCK
  5
3
330
2
100
AcDbEntity
  8
0
100
AcDbBlockBegin
  2
*MODEL_SPACE
 70
     0
 10
0.0
 20
0.0
 30
0.0
  3
*MODEL_SPACE
  1

  0
ENDBLK
  5
6
330
2
100
AcDbEntity
  8
0
100
AcDbBlockEnd
  0
BLOCK
  5
8
330
7
100
AcDbEntity
 67
     1
  8
0
100
AcDbBlockBegin
  2
*PAPER_SPACE
 70
     0
 10
0.0
 20
0.0
 30
0.0
  3
*PAPER_SPACE
  1

  0
ENDBLK
  5
9
330
7
100
AcDbEntity
 67
     1
  8
0
100
AcDbBlockEnd
  0
BLOCK
  5
46
330
3A
100
AcDbEntity
  8
0
100
AcDbBlockBegin
  2
F
 70
     0
 10
0.0
 20
0.0
 30
0.0
  3
F
  1

  0
CIRCLE
  5
3B
330
3A
100
AcDbEntity
  8
0
 62
     7
100
AcDbCircle
 10
0.0410665214247617
 20
-0.016701615976765
 30
0.0
 40
0.0183435
  0
CIRCLE
  5
3C
330
3A
100
AcDbEntity
  8
0
 62
     7
100
AcDbCircle
 10
0.0068044214247617
 20
-0.000720415976765
 30
0.0
 40
0.0194689
  0
CIRCLE
  5
3D
330
3A
100
AcDbEntity
  8
0
 62
     7
100
AcDbCircle
 10
0.0369728214247617
 20
-0.013878215976765
 30
0.0
 40
0.0139466
  0
CIRCLE
  5
3E
330
3A
100
AcDbEntity
  8
0
 62
     7
100
AcDbCircle
 10
0.1138706214247617
 20
0.0152964840232351
 30
0.0
 40
0.0058588
  0
LINE
  5
3F
330
3A
100
AcDbEntity
  8
0
 62
     7
100
AcDbLine
 10
0.1550692214247617
 20
-0.023509915976765
 30
0.0
 11
0.1179283214247617
 21
-0.024196615976765
 31
0.0
  0
LINE
  5
40
330
3A
100
AcDbEntity
  8
0
 62
     7
100
AcDbLine
 10
0.0092153214247617
 20
-0.029690015976765
 30
0.0
 11
0.0457186214247617
 21
-0.028454015976765
 31
0.0
  0
LINE
  5
41
330
3A
100
AcDbEntity
  8
0
 62
     7
100
AcDbLine
 10
0.0088965214247617
 20
-0.020076515976765
 30
0.0
 11
0.0092153214247617
 21
-0.029690015976765
 31
0.0
  0
LINE
  5
42
330
3A
100
AcDbEntity
  8
0
 62
     7
100
AcDbLine
 10
0.0353574214247617
 20
-0.000025415976765
 30
0.0
 11
0.0355168214247617
 21
0.009313484023235
 31
0.0
  0
LINE
  5
43
330
3A
100
AcDbEntity
  8
0
 62
     7
100
AcDbLine
 10
0.1196817214247617
 20
0.0160428840232351
 30
0.0
 11
0.1550692214247617
 21
0.0165922840232351
 31
0.0
  0
LINE
  5
44
330
3A
100
AcDbEntity
  8
0
 62
     7
100
AcDbLine
 10
0.1537940214247617
 20
-0.023235215976765
 30
0.0
 11
0.1526782214247617
 21
0.0172789840232351
 31
0.0
  0
LINE
  5
45
330
3A
100
AcDbEntity
  8
0
 62
     7
100
AcDbLine
 10
0.1142620214247617
 20
0.009450784023235
 30
0.0
 11
0.0363138214247617
 21
0.005193384023235
 31
0.0
  0
ENDBLK
  5
47
330
3A
100
AcDbEntity
  8
0
100
AcDbBlockEnd
  0
BLOCK
  5
9B
330
8E
100
AcDbEntity
  8
0
100
AcDbBlockBegin
  2
D
 70
     0
 10
0.0
 20
0.0
 30
0.0
  3
D
  1

  0
CIRCLE
  5
8F
330
8E
100
AcDbEntity
  8
0
 62
     7
100
AcDbCircle
 10
-0.1168512632442014
 20
0.0286128993414634
 30
0.0
 40
0.0184624
  0
CIRCLE
  5
90
330
8E
100
AcDbEntity
  8
0
 62
     7
100
AcDbCircle
 10
-0.1124979632442014
 20
0.0309464993414634
 30
0.0
 40
0.0254615
  0
CIRCLE
  5
91
330
8E
100
AcDbEntity
  8
0
 62
     7
100
AcDbCircle
 10
-0.1098053632442014
 20
0.0273971993414634
 30
0.0
 40
0.0219833
  0
LINE
  5
92
330
8E
100
AcDbEntity
  8
0
 62
     7
100
AcDbLine
 10
-0.1130932632442014
 20
0.0708659993414634
 30
0.0
 11
-0.1446799632442014
 21
0.0404778993414634
 31
0.0
  0
LINE
  5
93
330
8E
100
AcDbEntity
  8
0
 62
     7
100
AcDbLine
 10
-0.1297586632442014
 20
0.0418136993414634
 30
0.0
 11
-0.1400291632442014
 21
0.0504959993414634
 31
0.0
  0
LINE
  5
94
330
8E
100
AcDbEntity
  8
0
 62
     7
100
AcDbLine
 10
-0.1082487632442014
 20
0.0710328993414634
 30
0.0
 11
-0.0784060632442014
 21
0.0398100993414634
 31
0.0
  0
LINE
  5
95
330
8E
100
AcDbEntity
  8
0
 62
     7
100
AcDbLine
 10
-0.0920669632442015
 20
0.0403824993414634
 30
0.0
 11
-0.0844133632442015
 21
0.0478244993414634
 31
0.0
  0
LINE
  5
96
330
8E
100
AcDbEntity
  8
0
 62
     7
100
AcDbLine
 10
-0.0178829632442014
 20
0.0352731993414634
 30
0.0
 11
-0.0253094632442014
 21
0.0404778993414634
 31
0.0
  0
CIRCLE
  5
97
330
8E
100
AcDbEntity
  8
0
 62
     7
100
AcDbCircle
 10
-0.0019354632442014
 20
0.0279654993414634
 30
0.0
 40
0.0175421
  0
LINE
  5
98
330
8E
100
AcDbEntity
  8
0
 62
     7
100
AcDbLine
 10
-0.0253094632442014
 20
0.0404778993414634
 30
0.0
 11
-0.0074813632442014
 21
0.0643541993414634
 31
0.0
  0
LINE
  5
99
330
8E
100
AcDbEntity
  8
0
 62
     7
100
AcDbLine
 10
0.0161602367557986
 20
0.0461547993414634
 30
0.0
 11
-0.0074813632442014
 21
0.0643541993414634
 31
0.0
  0
LINE
  5
9A
330
8E
100
AcDbEntity
  8
0
 62
     7
100
AcDbLine
 10
0.0108860367557986
 20
0.0399377993414634
 30
0.0
 11
0.0161602367557986
 21
0.0461547993414634
 31
0.0
  0
ENDBLK
  5
9C
330
8E
100
AcDbEntity
  8
0
100
AcDbBlockEnd
  0
BLOCK
  5
BC
330
AC
100
AcDbEntity
  8
0
100
AcDbBlockBegin
  2
CCCROWN
 70
     0
 10
0.0
 20
0.0
 30
0.0
  3
CCCROWN
  1

  0
CIRCLE
  5
AD
330
AC
100
AcDbEntity
  8
0
 62
     7
100
AcDbCircle
 10
1.453151451829637
 20
0.6765280889605166
 30
0.0
 40
1.344812
  0
LINE
  5
AE
330
AC
100
AcDbEntity
  8
0
 62
     7
100
AcDbLine
 10
0.8618244518296375
 20
0.5174780889605167
 30
0.0
 11
0.8767584518296375
 21
-0.6765521110394835
 31
0.0
  0
LINE
  5
AF
330
AC
100
AcDbEntity
  8
0
 62
     7
100
AcDbLine
 10
0.2226365518296377
 20
0.5174780889605167
 30
0.0
 11
0.2226365518296377
 21
0.1609270889605165
 31
0.0
  0
CIRCLE
  5
B0
330
AC
100
AcDbEntity
  8
0
 62
     7
100
AcDbCircle
 10
0.0027955518296377
 20
-0.7486109110394834
 30
0.0
 40
0.6896503000000001
  0
CIRCLE
  5
B1
330
AC
100
AcDbEntity
  8
0
 62
     7
100
AcDbCircle
 10
0.4295939518296377
 20
0.0154420889605165
 30
0.0
 40
0.1281395
  0
LINE
  5
B2
330
AC
100
AcDbEntity
  8
0
 62
     7
100
AcDbLine
 10
0.2315971518296377
 20
0.1443430889605164
 30
0.0
 11
0.2584788518296377
 21
0.1388150889605166
 31
0.0
  0
LINE
  5
B3
330
AC
100
AcDbEntity
  8
0
 62
     7
100
AcDbLine
 10
0.2226365518296377
 20
0.1609270889605165
 30
0.0
 11
0.2315971518296377
 21
0.1443430889605164
 31
0.0
  0
LINE
  5
B4
330
AC
100
AcDbEntity
  8
0
 62
     7
100
AcDbLine
 10
0.2823736518296376
 20
0.1360510889605164
 30
0.0
 11
0.3480845518296377
 21
0.1305240889605166
 31
0.0
  0
LINE
  5
B5
330
AC
100
AcDbEntity
  8
0
 62
     7
100
AcDbLine
 10
0.2584788518296377
 20
0.1388150889605166
 30
0.0
 11
0.2823736518296376
 21
0.1360510889605164
 31
0.0
  0
LINE
  5
B6
330
AC
100
AcDbEntity
  8
0
 62
     7
100
AcDbLine
 10
0.3480845518296377
 20
0.1305240889605166
 30
0.0
 11
0.3510714518296377
 21
0.1167040889605164
 31
0.0
  0
LINE
  5
B7
330
AC
100
AcDbEntity
  8
0
 62
     7
100
AcDbLine
 10
0.8767584518296375
 20
-0.6765521110394835
 30
0.0
 11
0.7304024518296377
 21
-0.6793160110394835
 31
0.0
  0
LINE
  5
B8
330
AC
100
AcDbEntity
  8
0
 62
     7
100
AcDbLine
 10
0.6855994518296377
 20
-0.6572044110394835
 30
0.0
 11
0.6885863518296378
 21
-0.6378567110394835
 31
0.0
  0
LINE
  5
B9
330
AC
100
AcDbEntity
  8
0
 62
     7
100
AcDbLine
 10
0.7304024518296377
 20
-0.6793160110394835
 30
0.0
 11
0.7065074518296378
 21
-0.6737881110394835
 31
0.0
  0
LINE
  5
BA
330
AC
100
AcDbEntity
  8
0
 62
     7
100
AcDbLine
 10
0.7065074518296378
 20
-0.6737881110394835
 30
0.0
 11
0.6855994518296377
 21
-0.6572044110394835
 31
0.0
  0
LINE
  5
BB
330
AC
100
AcDbEntity
  8
0
 62
     7
100
AcDbLine
 10
0.2226365518296377
 20
0.5174780889605167
 30
0.0
 11
0.8618244518296375
 21
0.5174780889605167
 31
0.0
  0
ENDBLK
  5
BD
330
AC
100
AcDbEntity
  8
0
100
AcDbBlockEnd
  0
BLOCK
  5
5C3
330
5B6
100
AcDbEntity
  8
0
100
AcDbBlockBegin
  2
track
 70
     0
 10
0.0
 20
0.0
 30
0.0
  3
track
  1

  0
LINE
  5
5B7
330
5B6
100
AcDbEntity
  8
PROFILE
100
AcDbLine
 10
16.53207238374206
 20
4.044320932551642
 30
0.0
 11
16.53207238374207
 21
5.014320932551641
 31
0.0
  0
LINE
  5
5B8
330
5B6
100
AcDbEntity
  8
PROFILE
100
AcDbLine
 10
15.60207238374206
 20
4.044320932551642
 30
0.0
 11
15.60207238374206
 21
5.014320932551641
 31
0.0
  0
LINE
  5
5B9
330
5B6
100
AcDbEntity
  8
PROFILE
100
AcDbLine
 10
15.47707238374207
 20
3.919320932551641
 30
0.0
 11
15.47707238374206
 21
5.13932093255164
 31
0.0
  0
LINE
  5
5BA
330
5B6
100
AcDbEntity
  8
PROFILE
100
AcDbLine
 10
16.65707238374206
 20
3.919320932551642
 30
0.0
 11
16.65707238374206
 21
5.13932093255164
 31
0.0
  0
LINE
  5
5BB
330
5B6
100
AcDbEntity
  8
PROFILE
100
AcDbLine
 10
15.60207238374206
 20
4.044320932551642
 30
0.0
 11
15.81707238374206
 21
4.044320932551641
 31
0.0
  0
LINE
  5
5BC
330
5B6
100
AcDbEntity
  8
PROFILE
100
AcDbLine
 10
15.47707238374207
 20
3.919320932551641
 30
0.0
 11
15.81707238374206
 21
3.919320932551641
 31
0.0
  0
LINE
  5
5BD
330
5B6
100
AcDbEntity
  8
PROFILE
100
AcDbLine
 10
15.81707238374207
 20
3.919320932551642
 30
0.0
 11
15.81707238374206
 21
4.044320932551641
 31
0.0
  0
LINE
  5
5BE
330
5B6
100
AcDbEntity
  8
PROFILE
100
AcDbLine
 10
16.31707238374207
 20
3.919320932551641
 30
0.0
 11
16.65707238374206
 21
3.919320932551642
 31
0.0
  0
LINE
  5
5BF
330
5B6
100
AcDbEntity
  8
PROFILE
100
AcDbLine
 10
16.31707238374207
 20
3.919320932551642
 30
0.0
 11
16.31707238374206
 21
4.04432093255164
 31
0.0
  0
LINE
  5
5C0
330
5B6
100
AcDbEntity
  8
PROFILE
100
AcDbLine
 10
16.31707238374206
 20
4.04432093255164
 30
0.0
 11
16.53207238374206
 21
4.044320932551642
 31
0.0
  0
LINE
  5
5C1
330
5B6
100
AcDbEntity
  8
PROFILE
100
AcDbLine
 10
15.60207238374206
 20
5.014320932551641
 30
0.0
 11
16.53207238374207
 21
5.014320932551641
 31
0.0
  0
LINE
  5
5C2
330
5B6
100
AcDbEntity
  8
PROFILE
100
AcDbLine
 10
15.47707238374206
 20
5.13932093255164
 30
0.0
 11
16.65707238374206
 21
5.13932093255164
 31
0.0
  0
ENDBLK
  5
5C4
330
5B6
100
AcDbEntity
  8
0
100
AcDbBlockEnd
  0
ENDSEC
  0
SECTION
  2
ENTITIES
  0
TEXT
  5
7F5
330
2
100
AcDbEntity
  8
ALL
 62
     1
100
AcDbText
 10
10.12593796063227
 20
4.845236966795276
 30
0.0
 40
0.075
  1
13/16" x 3"
 41
1.25
  7
TEST
 72
     1
 11
10.58799153206084
 21
4.845236966795276
 31
0.0
100
AcDbText
  0
TEXT
  5
7F6
330
2
100
AcDbEntity
  8
ALL
 62
     1
100
AcDbText
 10
10.09342930739124
 20
4.990028390987919
 30
0.0
 40
0.125
  1
BWP-2028
 41
1.25
  7
PANROMAN
 72
     1
 11
10.58799153206084
 21
4.990028390987919
 31
0.0
100
AcDbText
  0
LWPOLYLINE
  5
7F7
330
2
100
AcDbEntity
  8
ALL
 62
     3
100
AcDbPolyline
 90
        9
 70
     0
 43
0.0
 10
10.75635977912504
 20
7.621559332819838
 10
10.79105812693762
 20
7.604849489525985
 10
10.84508318324055
 20
7.569683075700776
 10
10.89416771348285
 20
7.527896806894442
 10
10.93750575106242
 20
7.4801768124622
 10
10.97438568662457
 20
7.42730665336661
 10
11.00420195266762
 20
7.370154456128783
 10
11.02646496694414
 20
7.309658658215322
 10
11.0344968538501
 20
7.274468666137249
  0
LINE
  5
7F8
330
2
100
AcDbEntity
  8
ALL
 62
     3
100
AcDbLine
 10
10.24955336612723
 20
8.694197646409616
 30
0.0
 11
10.24955336612723
 21
5.69433554672501
 31
0.0
  0
LWPOLYLINE
  5
7F9
330
2
100
AcDbEntity
  8
ALL
 62
     3
100
AcDbPolyline
 90
       13
 70
     0
 43
0.0
 10
11.0344968538501
 20
7.274468666137249
 10
11.03853469886332
 20
7.232612189612705
 10
11.03696992023829
 20
7.183816588258462
 10
11.02917814552569
 20
7.135621697549037
 10
11.01528731544654
 20
7.088818876230458
 10
10.99552551703892
 20
7.044176625308676
 10
10.97021723847529
 20
7.002427969284649
 10
10.93977804097581
 20
6.96425841991272
 10
10.90470773530487
 20
6.930294720117
 10
10.86558217489238
 20
6.901094552890139
 10
10.82304380033678
 20
6.877137384154405
 10
10.77779109054841
 20
6.858816589944677
 10
10.73747359821765
 20
6.848244096299236
  0
LWPOLYLINE
  5
7FA
330
2
100
AcDbEntity
  8
ALL
 62
     3
100
AcDbPolyline
 90
       12
 70
     0
 43
0.0
 10
10.44848538421909
 20
5.69433554672501
 10
10.44795622962175
 20
5.710836494517803
 10
10.45068704857809
 20
5.73914431399562
 10
10.45701537109618
 20
5.766870517303441
 10
10.4668372862988
 20
5.793559840965041
 10
10.47999151861534
 20
5.81877404703864
 10
10.49626207592221
 20
5.842099118971741
 10
10.51538179612733
 20
5.863152059741093
 10
10.53703673396425
 20
5.881587180653109
 10
10.56087131596445
 20
5.897101777542342
 10
10.58649417896379
 20
5.90944110116548
 10
10.59410693817087
 20
5.911968712226705
  0
LWPOLYLINE
  5
7FB
330
2
100
AcDbEntity
  8
ALL
 62
     3
100
AcDbPolyline
 90
        2
 70
     0
 43
0.0
 10
10.24955336612723
 20
5.69433554672501
 10
10.45172383906439
 20
5.69433554672501
  0
LWPOLYLINE
  5
7FC
330
2
100
AcDbEntity
  8
ALL
 62
     3
100
AcDbPolyline
 90
       10
 70
     0
 43
0.0
 10
10.47086409826048
 20
6.293427933432166
 10
10.47051134400188
 20
6.304428082791741
 10
10.47752044598978
 20
6.377084819451436
 10
10.4937631404529
 20
6.448248741274863
 10
10.51897272280627
 20
6.516751338672957
 10
10.55273525241873
 20
6.58146780092856
 10
10.59449634950635
 20
6.641335485556862
 10
10.64357029803284
 20
6.695371366864872
 10
10.69915130514758
 20
6.742688177205632
 10
10.71444767217884
 20
6.752645010866825
  0
LWPOLYLINE
  5
7FD
330
2
100
AcDbEntity
  8
ALL
 62
     3
100
AcDbPolyline
 90
       23
 70
     0
 43
0.0
 10
10.50350937469396
 20
6.282471272803757
 10
10.5290520967522
 20
6.280861744131538
 10
10.55417540803467
 20
6.276059586530276
 10
10.57846678447878
 20
6.268143651292358
 10
10.60152736236846
 20
6.257243917851081
 10
10.62297848766522
 20
6.243539359522127
 10
10.64246793349672
 20
6.227255004766742
 10
10.65967568371213
 20
6.208658242230637
 10
10.67431918753829
 20
6.188054430230135
 10
10.68615799905537
 20
6.165781882777178
 10
10.69499772531222
 20
6.142206314472655
 10
10.70069321825303
 20
6.117714835483223
 10
10.70315095804434
 20
6.092709595203029
 10
10.70233058866811
 20
6.067601178972193
 10
10.69824558056635
 20
6.042801866277056
 10
10.6909630094569
 20
6.018718861132537
 10
10.68060245495194
 20
5.995747605803853
 10
10.6673340370642
 20
5.974265287655565
 10
10.65137562284117
 20
5.954624645745763
 10
10.63298924899428
 20
5.937148178860592
 10
10.61247681926346
 20
5.922122850093369
 10
10.59017514716635
 20
5.909795374918655
 10
10.57333306451925
 20
5.903103040880164
  0
LWPOLYLINE
  5
7FE
330
2
100
AcDbEntity
  8
ALL
 62
     3
100
AcDbPolyline
 90
        2
 70
     0
 43
0.0
 10
10.47021867321782
 20
6.293568173295806
 10
10.5401469051478
 20
6.278373960083353
  0
LWPOLYLINE
  5
7FF
330
2
100
AcDbEntity
  8
ALL
 62
     3
100
AcDbPolyline
 90
        2
 70
     0
 43
0.0
 10
10.73654428502705
 20
6.844714231067694
 10
10.71435048404294
 20
6.752240060300589
  0
LINE
  5
800
330
2
100
AcDbEntity
  8
ALL
 62
     3
100
AcDbLine
 10
10.73654428502705
 20
6.844714231067694
 30
0.0
 11
10.73747359821765
 21
6.848244096299236
 31
0.0
  0
LWPOLYLINE
  5
801
330
2
100
AcDbEntity
  8
ALL
 62
     3
100
AcDbPolyline
 90
       13
 70
     0
 43
0.0
 10
10.75635977912504
 20
7.621559332819838
 10
10.75902190432882
 20
7.649483589750854
 10
10.76788155585415
 20
7.688762377770284
 10
10.78163223713782
 20
7.726572252957549
 10
10.80004816238098
 20
7.762292378228504
 10
10.82282694261058
 20
7.79533623013371
 10
10.84959455089775
 20
7.825161229556965
 10
10.87991146386944
 20
7.851277650848953
 10
10.91327987866973
 20
7.873256663108701
 10
10.94915188686881
 20
7.890737371574839
 10
10.98693847110386
 20
7.903432743507419
 10
11.02601917672753
 20
7.911134321257389
 10
11.0657522996558
 20
7.913715645135322
  0
LINE
  5
802
330
2
100
AcDbEntity
  8
ALL
 62
     3
100
AcDbLine
 10
11.06205336612723
 20
8.694197646409616
 30
0.0
 11
10.24955336612723
 21
8.694197646409616
 31
0.0
  0
LWPOLYLINE
  5
803
330
2
100
AcDbEntity
  8
ALL
 62
     3
100
AcDbPolyline
 90
        2
 70
     0
 43
0.0
 10
11.06205336612723
 20
7.910016678304639
 10
11.06205336612723
 20
8.694197646409616
  0
VIEWPORT
  5
10F
330
7
100
AcDbEntity
 67
     1
  8
0
100
AcDbViewport
 10
7.329044117647058
 20
4.494742024799509
 30
0.0
 40
14.65808823529411
 41
9.0
 68
     1
 69
     1
 12
7.329044117647058
 22
4.494742024799509
 13
0.0
 23
0.0
 14
0.5
 24
0.5
 15
0.5
 25
0.5
 16
0.0
 26
0.0
 36
1.0
 17
0.0
 27
0.0
 37
0.0
 42
50.0
 43
0.0
 44
0.0
 45
9.0
 50
0.0
 51
0.0
 72
   100
 90
    32800
  1

281
     0
 71
     1
 74
     0
110
0.0
120
0.0
130
0.0
111
1.0
121
0.0
131
0.0
112
0.0
122
1.0
132
0.0
 79
     0
146
0.0
  0
ENDSEC
  0
SECTION
  2
OBJECTS
  0
DICTIONARY
  5
1A
330
0
100
AcDbDictionary
281
     1
  3
ACAD_GROUP
350
18
  3
ACAD_IMAGE_DICT
350
1E2
  3
ACAD_IMAGE_VARS
350
1E3
  3
ACAD_LAYOUT
350
16B
  3
ACAD_MLINESTYLE
350
19
  3
ACAD_PLOTSETTINGS
350
16C
  3
ACAD_PLOTSTYLENAME
350
169
  3
AcDbVariableDictionary
350
475
  3
DWGPROPS
350
172
  0
DICTIONARY
  5
18
102
{ACAD_REACTORS
330
1A
102
}
330
1A
100
AcDbDictionary
281
     1
  0
DICTIONARY
  5
1E2
102
{ACAD_REACTORS
330
1A
102
}
330
1A
100
AcDbDictionary
281
     1
  3
darlin
350
1E4
  3
sc
350
3D3
  0
RASTERVARIABLES
  5
1E3
102
{ACAD_REACTORS
330
1A
102
}
330
1A
100
AcDbRasterVariables
 90
        0
 70
     1
 71
     1
 72
     0
  0
DICTIONARY
  5
16B
102
{ACAD_REACTORS
330
1A
102
}
330
1A
100
AcDbDictionary
281
     1
  3
Layout1
350
16E
  3
Model
350
16D
  0
DICTIONARY
  5
19
102
{ACAD_REACTORS
330
1A
102
}
330
1A
100
AcDbDictionary
281
     1
  3
STANDARD
350
1C
  0
DICTIONARY
  5
16C
102
{ACAD_REACTORS
330
1A
102
}
330
1A
100
AcDbDictionary
281
     1
  0
ACDBDICTIONARYWDFLT
  5
169
102
{ACAD_REACTORS
330
1A
102
}
330
1A
100
AcDbDictionary
281
     1
  3
Normal
350
16A
100
AcDbDictionaryWithDefault
340
16A
  0
DICTIONARY
  5
475
102
{ACAD_REACTORS
330
1A
102
}
330
1A
100
AcDbDictionary
281
     1
  3
DIMASSOC
350
476
  0
XRECORD
  5
172
102
{ACAD_REACTORS
330
1A
102
}
330
1A
100
AcDbXrecord
280
     1
  1
DWGPROPS COOKIE
  2

  3

  4

  6

  7

  8
Benson Wood Products
  9

300
=
301
=
302
=
303
=
304
=
305
=
306
=
307
=
308
=
309
=
 40
0.1320853009259259
 41
2451257.51637963
 42
2453236.309322916
  1

 90
        0
  0
IMAGEDEF
  5
1E4
102
{ACAD_REACTORS
330
1E2
102
}
330
1E2
100
AcDbRasterImageDef
 90
        0
  1
C:\AutoCAD 2000i\scans\darlin.bmp
 10
661.0
 20
624.0
 11
0.0846668355628098
 21
0.0846668355628098
280
     1
281
     2
  0
IMAGEDEF
  5
3D3
102
{ACAD_REACTORS
330
1E2
102
}
330
1E2
100
AcDbRasterImageDef
 90
        0
  1
C:\AutoCAD 2000i\scans\sc.bmp
 10
1285.0
 20
1897.0
 11
0.0423334177814049
 21
0.0423334177814049
280
     1
281
     2
  0
LAYOUT
  5
16E
102
{ACAD_REACTORS
330
16B
102
}
330
16B
100
AcDbPlotSettings
  1

  2
\\Bwp-cnc\HP LaserJet 6P
  4

  6

 40
0.0
 41
0.0
 42
0.0
 43
0.0
 44
0.0
 45
0.0
 46
0.0
 47
0.0
 48
0.0
 49
0.0
140
0.0
141
0.0
142
1.0
143
1.0
 70
   688
 72
     0
 73
     0
 74
     5
  7
monochrome.ctb
 75
    16
147
1.0
148
0.0
149
0.0
100
AcDbLayout
  1
Layout1
 70
     1
 71
     1
 10
0.0
 20
0.0
 11
12.0
 21
9.0
 12
0.0
 22
0.0
 32
0.0
 14
1.000000000000000E+20
 24
1.000000000000000E+20
 34
1.000000000000000E+20
 15
-1.000000000000000E+20
 25
-1.000000000000000E+20
 35
-1.000000000000000E+20
146
0.0
 13
0.0
 23
0.0
 33
0.0
 16
1.0
 26
0.0
 36
0.0
 17
0.0
 27
1.0
 37
0.0
 76
     0
330
7
331
10F
  0
LAYOUT
  5
16D
102
{ACAD_REACTORS
330
16B
102
}
330
16B
100
AcDbPlotSettings
  1

  2
PrimoPDF
  4
Letter
  6

 40
3.174999952316284
 41
3.174999952316284
 42
3.175003051757812
 43
3.17498779296875
 44
215.8999938964843
 45
279.3999938964843
 46
83.05799999999999
 47
80.264
 48
9.750130863479956
 49
4.594931403762684
140
11.45594240957401
141
9.0226756628862
142
1.0
143
1.0
 70
 11956
 72
     0
 73
     0
 74
     4
  7
monochrome.ctb
 75
    16
147
1.0
148
-247.6533239323909
149
-116.7112576555721
100
AcDbLayout
  1
Model
 70
     1
 71
     0
 10
0.0
 20
0.0
 11
12.0
 21
9.0
 12
0.0
 22
0.0
 32
0.0
 14
0.0
 24
0.0
 34
0.0
 15
0.0
 25
0.0
 35
0.0
146
0.0
 13
0.0
 23
0.0
 33
0.0
 16
1.0
 26
0.0
 36
0.0
 17
0.0
 27
1.0
 37
0.0
 76
     0
330
2
  0
MLINESTYLE
  5
1C
102
{ACAD_REACTORS
330
19
102
}
330
19
100
AcDbMlineStyle
  2
STANDARD
 70
     0
  3

 62
     0
 51
90.0
 52
90.0
 71
     2
 49
0.5
 62
   256
  6
BYLAYER
 49
-0.5
 62
   256
  6
BYLAYER
  0
ACDBPLACEHOLDER
  5
16A
102
{ACAD_REACTORS
330
169
102
}
330
169
  0
DICTIONARYVAR
  5
476
102
{ACAD_REACTORS
330
475
102
}
330
475
100
DictionaryVariables
280
     0
  1
1
  0
ENDSEC
  0
EOF
