  0
SECTION
  2
HEADER
  9
$ACADVER
  1
AC1015
  9
$ACADMAINTVER
 70
    13
  9
$DWGCODEPAGE
  3
ANSI_1252
  9
$INSBASE
 10
0.0
 20
0.0
 30
0.0
  9
$EXTMIN
 10
9.457946816293926
 20
4.806930568542949
 30
-0.0015258207003583
  9
$EXTMAX
 10
10.56115725282714
 20
8.882171651676962
 30
0.0000000349246037
  9
$LIMMIN
 10
0.0
 20
0.0
  9
$LIMMAX
 10
12.0
 20
9.0
  9
$ORTHOMODE
 70
     1
  9
$REGENMODE
 70
     1
  9
$FILLMODE
 70
     1
  9
$QTEXTMODE
 70
     0
  9
$MIRRTEXT
 70
     1
  9
$LTSCALE
 40
1.0
  9
$ATTMODE
 70
     1
  9
$TEXTSIZE
 40
0.2
  9
$TRACEWID
 40
0.05
  9
$TEXTSTYLE
  7
STANDARD
  9
$CLAYER
  8
PROFILE
  9
$CELTYPE
  6
BYLAYER
  9
$CECOLOR
 62
   256
  9
$CELTSCALE
 40
1.0
  9
$DISPSILH
 70
     0
  9
$DIMSCALE
 40
1.0
  9
$DIMASZ
 40
0.18
  9
$DIMEXO
 40
0.0625
  9
$DIMDLI
 40
0.38
  9
$DIMRND
 40
0.0
  9
$DIMDLE
 40
0.0
  9
$DIMEXE
 40
0.18
  9
$DIMTP
 40
0.0
  9
$DIMTM
 40
0.0
  9
$DIMTXT
 40
0.18
  9
$DIMCEN
 40
0.09
  9
$DIMTSZ
 40
0.0
  9
$DIMTOL
 70
     0
  9
$DIMLIM
 70
     0
  9
$DIMTIH
 70
     1
  9
$DIMTOH
 70
     1
  9
$DIMSE1
 70
     0
  9
$DIMSE2
 70
     0
  9
$DIMTAD
 70
     0
  9
$DIMZIN
 70
     0
  9
$DIMBLK
  1

  9
$DIMASO
 70
     1
  9
$DIMSHO
 70
     1
  9
$DIMPOST
  1

  9
$DIMAPOST
  1

  9
$DIMALT
 70
     0
  9
$DIMALTD
 70
     2
  9
$DIMALTF
 40
25.4
  9
$DIMLFAC
 40
1.0
  9
$DIMTOFL
 70
     0
  9
$DIMTVP
 40
0.0
  9
$DIMTIX
 70
     0
  9
$DIMSOXD
 70
     0
  9
$DIMSAH
 70
     0
  9
$DIMBLK1
  1

  9
$DIMBLK2
  1

  9
$DIMSTYLE
  2
STANDARD_WS
  9
$DIMCLRD
 70
     0
  9
$DIMCLRE
 70
     0
  9
$DIMCLRT
 70
     0
  9
$DIMTFAC
 40
1.0
  9
$DIMGAP
 40
0.09
  9
$DIMJUST
 70
     0
  9
$DIMSD1
 70
     0
  9
$DIMSD2
 70
     0
  9
$DIMTOLJ
 70
     1
  9
$DIMTZIN
 70
     0
  9
$DIMALTZ
 70
     0
  9
$DIMALTTZ
 70
     0
  9
$DIMUPT
 70
     0
  9
$DIMDEC
 70
     4
  9
$DIMTDEC
 70
     4
  9
$DIMALTU
 70
     2
  9
$DIMALTTD
 70
     2
  9
$DIMTXSTY
  7
STANDARD
  9
$DIMAUNIT
 70
     0
  9
$DIMADEC
 70
     3
  9
$DIMALTRND
 40
0.0
  9
$DIMAZIN
 70
     0
  9
$DIMDSEP
 70
    46
  9
$DIMATFIT
 70
     3
  9
$DIMFRAC
 70
     0
  9
$DIMLDRBLK
  1

  9
$DIMLUNIT
 70
     2
  9
$DIMLWD
 70
    -2
  9
$DIMLWE
 70
    -2
  9
$DIMTMOVE
 70
     0
  9
$LUNITS
 70
     2
  9
$LUPREC
 70
     4
  9
$SKETCHINC
 40
0.1
  9
$FILLETRAD
 40
0.0
  9
$AUNITS
 70
     0
  9
$AUPREC
 70
     4
  9
$MENU
  1
.
  9
$ELEVATION
 40
0.0
  9
$PELEVATION
 40
0.0
  9
$THICKNESS
 40
0.0
  9
$LIMCHECK
 70
     0
  9
$CHAMFERA
 40
0.5
  9
$CHAMFERB
 40
0.5
  9
$CHAMFERC
 40
1.0
  9
$CHAMFERD
 40
0.0
  9
$SKPOLY
 70
     1
  9
$TDCREATE
 40
2451257.516379630
  9
$TDUCREATE
 40
2451257.724712962
  9
$TDUPDATE
 40
2454925.446336249
  9
$TDUUPDATE
 40
2454925.654669583
  9
$TDINDWG
 40
4.0378401273
  9
$TDUSRTIMER
 40
4.0378401273
  9
$USRTIMER
 70
     1
  9
$ANGBASE
 50
0.0
  9
$ANGDIR
 70
     0
  9
$PDMODE
 70
     0
  9
$PDSIZE
 40
0.0
  9
$PLINEWID
 40
0.0
  9
$SPLFRAME
 70
     0
  9
$SPLINETYPE
 70
     6
  9
$SPLINESEGS
 70
     8
  9
$HANDSEED
  5
917
  9
$SURFTAB1
 70
     6
  9
$SURFTAB2
 70
     6
  9
$SURFTYPE
 70
     6
  9
$SURFU
 70
     6
  9
$SURFV
 70
     6
  9
$UCSBASE
  2

  9
$UCSNAME
  2

  9
$UCSORG
 10
0.0
 20
0.0
 30
0.0
  9
$UCSXDIR
 10
1.0
 20
0.0
 30
0.0
  9
$UCSYDIR
 10
0.0
 20
1.0
 30
0.0
  9
$UCSORTHOREF
  2

  9
$UCSORTHOVIEW
 70
     0
  9
$UCSORGTOP
 10
0.0
 20
0.0
 30
0.0
  9
$UCSORGBOTTOM
 10
0.0
 20
0.0
 30
0.0
  9
$UCSORGLEFT
 10
0.0
 20
0.0
 30
0.0
  9
$UCSORGRIGHT
 10
0.0
 20
0.0
 30
0.0
  9
$UCSORGFRONT
 10
0.0
 20
0.0
 30
0.0
  9
$UCSORGBACK
 10
0.0
 20
0.0
 30
0.0
  9
$PUCSBASE
  2

  9
$PUCSNAME
  2

  9
$PUCSORG
 10
0.0
 20
0.0
 30
0.0
  9
$PUCSXDIR
 10
1.0
 20
0.0
 30
0.0
  9
$PUCSYDIR
 10
0.0
 20
1.0
 30
0.0
  9
$PUCSORTHOREF
  2

  9
$PUCSORTHOVIEW
 70
     0
  9
$PUCSORGTOP
 10
0.0
 20
0.0
 30
0.0
  9
$PUCSORGBOTTOM
 10
0.0
 20
0.0
 30
0.0
  9
$PUCSORGLEFT
 10
0.0
 20
0.0
 30
0.0
  9
$PUCSORGRIGHT
 10
0.0
 20
0.0
 30
0.0
  9
$PUCSORGFRONT
 10
0.0
 20
0.0
 30
0.0
  9
$PUCSORGBACK
 10
0.0
 20
0.0
 30
0.0
  9
$USERI1
 70
     0
  9
$USERI2
 70
     0
  9
$USERI3
 70
     0
  9
$USERI4
 70
     0
  9
$USERI5
 70
     0
  9
$USERR1
 40
0.0
  9
$USERR2
 40
0.0
  9
$USERR3
 40
0.0
  9
$USERR4
 40
0.0
  9
$USERR5
 40
0.0
  9
$WORLDVIEW
 70
     1
  9
$SHADEDGE
 70
     3
  9
$SHADEDIF
 70
    70
  9
$TILEMODE
 70
     1
  9
$MAXACTVP
 70
    48
  9
$PINSBASE
 10
0.0
 20
0.0
 30
0.0
  9
$PLIMCHECK
 70
     0
  9
$PEXTMIN
 10
1.000000000000000E+20
 20
1.000000000000000E+20
 30
1.000000000000000E+20
  9
$PEXTMAX
 10
-1.000000000000000E+20
 20
-1.000000000000000E+20
 30
-1.000000000000000E+20
  9
$PLIMMIN
 10
0.0
 20
0.0
  9
$PLIMMAX
 10
12.0
 20
9.0
  9
$UNITMODE
 70
     0
  9
$VISRETAIN
 70
     0
  9
$PLINEGEN
 70
     0
  9
$PSLTSCALE
 70
     1
  9
$TREEDEPTH
 70
  3020
  9
$CMLSTYLE
  2
STANDARD
  9
$CMLJUST
 70
     0
  9
$CMLSCALE
 40
1.0
  9
$PROXYGRAPHICS
 70
     1
  9
$MEASUREMENT
 70
     0
  9
$CELWEIGHT
370
    -1
  9
$ENDCAPS
280
     0
  9
$JOINSTYLE
280
     0
  9
$LWDISPLAY
290
     0
  9
$INSUNITS
 70
     0
  9
$HYPERLINKBASE
  1

  9
$STYLESHEET
  1
monochrome.ctb
  9
$XEDIT
290
     1
  9
$CEPSNTYPE
380
     0
  9
$PSTYLEMODE
290
     1
  9
$FINGERPRINTGUID
  2
{89108230-6C88-44B9-880F-278BAA3B4DED}
  9
$VERSIONGUID
  2
{30F3F803-6178-4982-BC39-DED08E962422}
  9
$EXTNAMES
290
     1
  9
$PSVPSCALE
 40
0.0
  9
$OLESTARTUP
290
     0
  0
ENDSEC
  0
SECTION
  2
CLASSES
  0
CLASS
  1
DICTIONARYVAR
  2
AcDbDictionaryVar
  3
AutoCAD 2000
 90
        0
280
     0
281
     0
  0
CLASS
  1
ACDBDICTIONARYWDFLT
  2
AcDbDictionaryWithDefault
  3
AutoCAD 2000
 90
        0
280
     0
281
     0
  0
CLASS
  1
ACDBPLACEHOLDER
  2
AcDbPlaceHolder
  3
AutoCAD 2000
 90
        0
280
     0
281
     0
  0
CLASS
  1
LAYOUT
  2
AcDbLayout
  3
AutoCAD 2000
 90
        0
280
     0
281
     0
  0
CLASS
  1
RASTERVARIABLES
  2
AcDbRasterVariables
  3
ISM
 90
        0
280
     0
281
     0
  0
CLASS
  1
IMAGEDEF
  2
AcDbRasterImageDef
  3
ISM
 90
        0
280
     0
281
     0
  0
CLASS
  1
IMAGEDEF_REACTOR
  2
AcDbRasterImageDefReactor
  3
ISM
 90
    32769
280
     0
281
     0
  0
CLASS
  1
IMAGE
  2
AcDbRasterImage
  3
ISM
 90
    32895
280
     0
281
     1
  0
ENDSEC
  0
SECTION
  2
TABLES
  0
TABLE
  2
VPORT
  5
12
330
0
100
AcDbSymbolTable
 70
     4
  0
VPORT
  5
916
330
12
100
AcDbSymbolTableRecord
100
AcDbViewportTableRecord
  2
*Active
 70
     0
 10
0.0
 20
0.0
 11
1.0
 21
1.0
 12
10.70560746496965
 22
6.905564162070804
 13
0.0
 23
0.0
 14
0.5
 24
0.5
 15
0.5
 25
0.5
 16
0.0
 26
0.0
 36
1.0
 17
0.0
 27
0.0
 37
0.0
 40
5.060222342693156
 41
1.672438672438672
 42
50.0
 43
0.0
 44
0.0
 50
0.0
 51
0.0
 71
     0
 72
   100
 73
     1
 74
     1
 75
     0
 76
     0
 77
     0
 78
     0
281
     0
 65
     1
110
0.0
120
0.0
130
0.0
111
1.0
121
0.0
131
0.0
112
0.0
122
1.0
132
0.0
 79
     0
146
0.0
  0
ENDTAB
  0
TABLE
  2
LTYPE
  5
D
330
0
100
AcDbSymbolTable
 70
     1
  0
LTYPE
  5
E
330
D
100
AcDbSymbolTableRecord
100
AcDbLinetypeTableRecord
  2
BYBLOCK
 70
     0
  3

 72
    65
 73
     0
 40
0.0
  0
LTYPE
  5
F
330
D
100
AcDbSymbolTableRecord
100
AcDbLinetypeTableRecord
  2
BYLAYER
 70
     0
  3

 72
    65
 73
     0
 40
0.0
  0
LTYPE
  5
5
330
D
100
AcDbSymbolTableRecord
100
AcDbLinetypeTableRecord
  2
CONTINUOUS
 70
     0
  3
Solid line
 72
    65
 73
     0
 40
0.0
  0
ENDTAB
  0
TABLE
  2
LAYER
  5
A
330
0
100
AcDbSymbolTable
 70
     6
  0
LAYER
  5
4
330
A
100
AcDbSymbolTableRecord
100
AcDbLayerTableRecord
  2
0
 70
     0
 62
     7
  6
CONTINUOUS
370
    -3
390
16A
  0
LAYER
  5
1F
330
A
100
AcDbSymbolTableRecord
100
AcDbLayerTableRecord
  2
PROFILE
 70
     0
 62
     3
  6
CONTINUOUS
370
    -3
390
16A
  0
LAYER
  5
1B
330
A
100
AcDbSymbolTableRecord
100
AcDbLayerTableRecord
  2
DEFPOINTS
 70
     0
 62
     7
  6
CONTINUOUS
290
     0
370
    -3
390
16A
  0
LAYER
  5
27
330
A
100
AcDbSymbolTableRecord
100
AcDbLayerTableRecord
  2
TEXT
 70
     0
 62
     5
  6
CONTINUOUS
370
    -3
390
16A
  0
LAYER
  5
28
330
A
100
AcDbSymbolTableRecord
100
AcDbLayerTableRecord
  2
DIMENSION
 70
     0
 62
     1
  6
CONTINUOUS
370
    -3
390
16A
  0
LAYER
  5
750
330
A
100
AcDbSymbolTableRecord
100
AcDbLayerTableRecord
  2
ALL
 70
     0
 62
     7
  6
CONTINUOUS
370
    -3
390
16A
  0
ENDTAB
  0
TABLE
  2
STYLE
  5
B
330
0
100
AcDbSymbolTable
 70
     3
  0
STYLE
  5
C
330
B
100
AcDbSymbolTableRecord
100
AcDbTextStyleTableRecord
  2
STANDARD
 70
     0
 40
0.0
 41
1.0
 50
0.0
 71
     0
 42
0.2
  3
txt
  4

  0
STYLE
  5
751
330
B
100
AcDbSymbolTableRecord
100
AcDbTextStyleTableRecord
  2
PANROMAN
 70
     0
 40
0.25
 41
1.25
 50
10.0
 71
     0
 42
0.25
  3
par_____.pfb
  4

  0
STYLE
  5
752
330
B
100
AcDbSymbolTableRecord
100
AcDbTextStyleTableRecord
  2
TEST
 70
     0
 40
0.0
 41
1.0
 50
0.0
 71
     0
 42
0.25
  3
ROMANC.SHX
  4

  0
ENDTAB
  0
TABLE
  2
VIEW
  5
10
330
0
100
AcDbSymbolTable
 70
     0
  0
ENDTAB
  0
TABLE
  2
UCS
  5
11
330
0
100
AcDbSymbolTable
 70
     0
  0
ENDTAB
  0
TABLE
  2
APPID
  5
14
330
0
100
AcDbSymbolTable
 70
     2
  0
APPID
  5
15
330
14
100
AcDbSymbolTableRecord
100
AcDbRegAppTableRecord
  2
ACAD
 70
     0
  0
APPID
  5
171
330
14
100
AcDbSymbolTableRecord
100
AcDbRegAppTableRecord
  2
NCPOLARIS_BASE
 70
     0
  0
ENDTAB
  0
TABLE
  2
DIMSTYLE
  5
16
330
0
100
AcDbSymbolTable
 70
     2
100
AcDbDimStyleTable
 71
     1
340
1D
  0
DIMSTYLE
105
1D
330
16
100
AcDbSymbolTableRecord
100
AcDbDimStyleTableRecord
  2
STANDARD_WS
 70
     0
179
     3
340
C
  0
DIMSTYLE
105
39
330
16
100
AcDbSymbolTableRecord
100
AcDbDimStyleTableRecord
  2
STANDARD
 70
     0
340
C
  0
ENDTAB
  0
TABLE
  2
BLOCK_RECORD
  5
1
330
0
100
AcDbSymbolTable
 70
     5
  0
BLOCK_RECORD
  5
2
330
1
100
AcDbSymbolTableRecord
100
AcDbBlockTableRecord
  2
*MODEL_SPACE
340
16D
  0
BLOCK_RECORD
  5
7
330
1
100
AcDbSymbolTableRecord
100
AcDbBlockTableRecord
  2
*PAPER_SPACE
340
16E
  0
BLOCK_RECORD
  5
3A
330
1
100
AcDbSymbolTableRecord
100
AcDbBlockTableRecord
  2
F
340
0
  0
BLOCK_RECORD
  5
8E
330
1
100
AcDbSymbolTableRecord
100
AcDbBlockTableRecord
  2
D
340
0
  0
BLOCK_RECORD
  5
AC
330
1
100
AcDbSymbolTableRecord
100
AcDbBlockTableRecord
  2
CCCROWN
340
0
  0
BLOCK_RECORD
  5
5B6
330
1
100
AcDbSymbolTableRecord
100
AcDbBlockTableRecord
  2
track
340
0
  0
ENDTAB
  0
ENDSEC
  0
SECTION
  2
BLOCKS
  0
BLOCK
  5
3
330
2
100
AcDbEntity
  8
0
100
AcDbBlockBegin
  2
*MODEL_SPACE
 70
     0
 10
0.0
 20
0.0
 30
0.0
  3
*MODEL_SPACE
  1

  0
ENDBLK
  5
6
330
2
100
AcDbEntity
  8
0
100
AcDbBlockEnd
  0
BLOCK
  5
8
330
7
100
AcDbEntity
 67
     1
  8
0
100
AcDbBlockBegin
  2
*PAPER_SPACE
 70
     0
 10
0.0
 20
0.0
 30
0.0
  3
*PAPER_SPACE
  1

  0
ENDBLK
  5
9
330
7
100
AcDbEntity
 67
     1
  8
0
100
AcDbBlockEnd
  0
BLOCK
  5
46
330
3A
100
AcDbEntity
  8
0
100
AcDbBlockBegin
  2
F
 70
     0
 10
0.0
 20
0.0
 30
0.0
  3
F
  1

  0
CIRCLE
  5
3B
330
3A
100
AcDbEntity
  8
0
 62
     7
100
AcDbCircle
 10
0.0410665214247617
 20
-0.016701615976765
 30
0.0
 40
0.0183435
  0
CIRCLE
  5
3C
330
3A
100
AcDbEntity
  8
0
 62
     7
100
AcDbCircle
 10
0.0068044214247617
 20
-0.000720415976765
 30
0.0
 40
0.0194689
  0
CIRCLE
  5
3D
330
3A
100
AcDbEntity
  8
0
 62
     7
100
AcDbCircle
 10
0.0369728214247617
 20
-0.013878215976765
 30
0.0
 40
0.0139466
  0
CIRCLE
  5
3E
330
3A
100
AcDbEntity
  8
0
 62
     7
100
AcDbCircle
 10
0.1138706214247617
 20
0.0152964840232351
 30
0.0
 40
0.0058588
  0
LINE
  5
3F
330
3A
100
AcDbEntity
  8
0
 62
     7
100
AcDbLine
 10
0.1550692214247617
 20
-0.023509915976765
 30
0.0
 11
0.1179283214247617
 21
-0.024196615976765
 31
0.0
  0
LINE
  5
40
330
3A
100
AcDbEntity
  8
0
 62
     7
100
AcDbLine
 10
0.0092153214247617
 20
-0.029690015976765
 30
0.0
 11
0.0457186214247617
 21
-0.028454015976765
 31
0.0
  0
LINE
  5
41
330
3A
100
AcDbEntity
  8
0
 62
     7
100
AcDbLine
 10
0.0088965214247617
 20
-0.020076515976765
 30
0.0
 11
0.0092153214247617
 21
-0.029690015976765
 31
0.0
  0
LINE
  5
42
330
3A
100
AcDbEntity
  8
0
 62
     7
100
AcDbLine
 10
0.0353574214247617
 20
-0.000025415976765
 30
0.0
 11
0.0355168214247617
 21
0.009313484023235
 31
0.0
  0
LINE
  5
43
330
3A
100
AcDbEntity
  8
0
 62
     7
100
AcDbLine
 10
0.1196817214247617
 20
0.0160428840232351
 30
0.0
 11
0.1550692214247617
 21
0.0165922840232351
 31
0.0
  0
LINE
  5
44
330
3A
100
AcDbEntity
  8
0
 62
     7
100
AcDbLine
 10
0.1537940214247617
 20
-0.023235215976765
 30
0.0
 11
0.1526782214247617
 21
0.0172789840232351
 31
0.0
  0
LINE
  5
45
330
3A
100
AcDbEntity
  8
0
 62
     7
100
AcDbLine
 10
0.1142620214247617
 20
0.009450784023235
 30
0.0
 11
0.0363138214247617
 21
0.005193384023235
 31
0.0
  0
ENDBLK
  5
47
330
3A
100
AcDbEntity
  8
0
100
AcDbBlockEnd
  0
BLOCK
  5
9B
330
8E
100
AcDbEntity
  8
0
100
AcDbBlockBegin
  2
D
 70
     0
 10
0.0
 20
0.0
 30
0.0
  3
D
  1

  0
CIRCLE
  5
8F
330
8E
100
AcDbEntity
  8
0
 62
     7
100
AcDbCircle
 10
-0.1168512632442014
 20
0.0286128993414634
 30
0.0
 40
0.0184624
  0
CIRCLE
  5
90
330
8E
100
AcDbEntity
  8
0
 62
     7
100
AcDbCircle
 10
-0.1124979632442014
 20
0.0309464993414634
 30
0.0
 40
0.0254615
  0
CIRCLE
  5
91
330
8E
100
AcDbEntity
  8
0
 62
     7
100
AcDbCircle
 10
-0.1098053632442014
 20
0.0273971993414634
 30
0.0
 40
0.0219833
  0
LINE
  5
92
330
8E
100
AcDbEntity
  8
0
 62
     7
100
AcDbLine
 10
-0.1130932632442014
 20
0.0708659993414634
 30
0.0
 11
-0.1446799632442014
 21
0.0404778993414634
 31
0.0
  0
LINE
  5
93
330
8E
100
AcDbEntity
  8
0
 62
     7
100
AcDbLine
 10
-0.1297586632442014
 20
0.0418136993414634
 30
0.0
 11
-0.1400291632442014
 21
0.0504959993414634
 31
0.0
  0
LINE
  5
94
330
8E
100
AcDbEntity
  8
0
 62
     7
100
AcDbLine
 10
-0.1082487632442014
 20
0.0710328993414634
 30
0.0
 11
-0.0784060632442014
 21
0.0398100993414634
 31
0.0
  0
LINE
  5
95
330
8E
100
AcDbEntity
  8
0
 62
     7
100
AcDbLine
 10
-0.0920669632442015
 20
0.0403824993414634
 30
0.0
 11
-0.0844133632442015
 21
0.0478244993414634
 31
0.0
  0
LINE
  5
96
330
8E
100
AcDbEntity
  8
0
 62
     7
100
AcDbLine
 10
-0.0178829632442014
 20
0.0352731993414634
 30
0.0
 11
-0.0253094632442014
 21
0.0404778993414634
 31
0.0
  0
CIRCLE
  5
97
330
8E
100
AcDbEntity
  8
0
 62
     7
100
AcDbCircle
 10
-0.0019354632442014
 20
0.0279654993414634
 30
0.0
 40
0.0175421
  0
LINE
  5
98
330
8E
100
AcDbEntity
  8
0
 62
     7
100
AcDbLine
 10
-0.0253094632442014
 20
0.0404778993414634
 30
0.0
 11
-0.0074813632442014
 21
0.0643541993414634
 31
0.0
  0
LINE
  5
99
330
8E
100
AcDbEntity
  8
0
 62
     7
100
AcDbLine
 10
0.0161602367557986
 20
0.0461547993414634
 30
0.0
 11
-0.0074813632442014
 21
0.0643541993414634
 31
0.0
  0
LINE
  5
9A
330
8E
100
AcDbEntity
  8
0
 62
     7
100
AcDbLine
 10
0.0108860367557986
 20
0.0399377993414634
 30
0.0
 11
0.0161602367557986
 21
0.0461547993414634
 31
0.0
  0
ENDBLK
  5
9C
330
8E
100
AcDbEntity
  8
0
100
AcDbBlockEnd
  0
BLOCK
  5
BC
330
AC
100
AcDbEntity
  8
0
100
AcDbBlockBegin
  2
CCCROWN
 70
     0
 10
0.0
 20
0.0
 30
0.0
  3
CCCROWN
  1

  0
CIRCLE
  5
AD
330
AC
100
AcDbEntity
  8
0
 62
     7
100
AcDbCircle
 10
1.453151451829637
 20
0.6765280889605166
 30
0.0
 40
1.344812
  0
LINE
  5
AE
330
AC
100
AcDbEntity
  8
0
 62
     7
100
AcDbLine
 10
0.8618244518296375
 20
0.5174780889605167
 30
0.0
 11
0.8767584518296375
 21
-0.6765521110394835
 31
0.0
  0
LINE
  5
AF
330
AC
100
AcDbEntity
  8
0
 62
     7
100
AcDbLine
 10
0.2226365518296377
 20
0.5174780889605167
 30
0.0
 11
0.2226365518296377
 21
0.1609270889605165
 31
0.0
  0
CIRCLE
  5
B0
330
AC
100
AcDbEntity
  8
0
 62
     7
100
AcDbCircle
 10
0.0027955518296377
 20
-0.7486109110394834
 30
0.0
 40
0.6896503000000001
  0
CIRCLE
  5
B1
330
AC
100
AcDbEntity
  8
0
 62
     7
100
AcDbCircle
 10
0.4295939518296377
 20
0.0154420889605165
 30
0.0
 40
0.1281395
  0
LINE
  5
B2
330
AC
100
AcDbEntity
  8
0
 62
     7
100
AcDbLine
 10
0.2315971518296377
 20
0.1443430889605164
 30
0.0
 11
0.2584788518296377
 21
0.1388150889605166
 31
0.0
  0
LINE
  5
B3
330
AC
100
AcDbEntity
  8
0
 62
     7
100
AcDbLine
 10
0.2226365518296377
 20
0.1609270889605165
 30
0.0
 11
0.2315971518296377
 21
0.1443430889605164
 31
0.0
  0
LINE
  5
B4
330
AC
100
AcDbEntity
  8
0
 62
     7
100
AcDbLine
 10
0.2823736518296376
 20
0.1360510889605164
 30
0.0
 11
0.3480845518296377
 21
0.1305240889605166
 31
0.0
  0
LINE
  5
B5
330
AC
100
AcDbEntity
  8
0
 62
     7
100
AcDbLine
 10
0.2584788518296377
 20
0.1388150889605166
 30
0.0
 11
0.2823736518296376
 21
0.1360510889605164
 31
0.0
  0
LINE
  5
B6
330
AC
100
AcDbEntity
  8
0
 62
     7
100
AcDbLine
 10
0.3480845518296377
 20
0.1305240889605166
 30
0.0
 11
0.3510714518296377
 21
0.1167040889605164
 31
0.0
  0
LINE
  5
B7
330
AC
100
AcDbEntity
  8
0
 62
     7
100
AcDbLine
 10
0.8767584518296375
 20
-0.6765521110394835
 30
0.0
 11
0.7304024518296377
 21
-0.6793160110394835
 31
0.0
  0
LINE
  5
B8
330
AC
100
AcDbEntity
  8
0
 62
     7
100
AcDbLine
 10
0.6855994518296377
 20
-0.6572044110394835
 30
0.0
 11
0.6885863518296378
 21
-0.6378567110394835
 31
0.0
  0
LINE
  5
B9
330
AC
100
AcDbEntity
  8
0
 62
     7
100
AcDbLine
 10
0.7304024518296377
 20
-0.6793160110394835
 30
0.0
 11
0.7065074518296378
 21
-0.6737881110394835
 31
0.0
  0
LINE
  5
BA
330
AC
100
AcDbEntity
  8
0
 62
     7
100
AcDbLine
 10
0.7065074518296378
 20
-0.6737881110394835
 30
0.0
 11
0.6855994518296377
 21
-0.6572044110394835
 31
0.0
  0
LINE
  5
BB
330
AC
100
AcDbEntity
  8
0
 62
     7
100
AcDbLine
 10
0.2226365518296377
 20
0.5174780889605167
 30
0.0
 11
0.8618244518296375
 21
0.5174780889605167
 31
0.0
  0
ENDBLK
  5
BD
330
AC
100
AcDbEntity
  8
0
100
AcDbBlockEnd
  0
BLOCK
  5
5C3
330
5B6
100
AcDbEntity
  8
0
100
AcDbBlockBegin
  2
track
 70
     0
 10
0.0
 20
0.0
 30
0.0
  3
track
  1

  0
LINE
  5
5B7
330
5B6
100
AcDbEntity
  8
PROFILE
100
AcDbLine
 10
16.53207238374206
 20
4.044320932551642
 30
0.0
 11
16.53207238374207
 21
5.014320932551641
 31
0.0
  0
LINE
  5
5B8
330
5B6
100
AcDbEntity
  8
PROFILE
100
AcDbLine
 10
15.60207238374206
 20
4.044320932551642
 30
0.0
 11
15.60207238374206
 21
5.014320932551641
 31
0.0
  0
LINE
  5
5B9
330
5B6
100
AcDbEntity
  8
PROFILE
100
AcDbLine
 10
15.47707238374207
 20
3.919320932551641
 30
0.0
 11
15.47707238374206
 21
5.13932093255164
 31
0.0
  0
LINE
  5
5BA
330
5B6
100
AcDbEntity
  8
PROFILE
100
AcDbLine
 10
16.65707238374206
 20
3.919320932551642
 30
0.0
 11
16.65707238374206
 21
5.13932093255164
 31
0.0
  0
LINE
  5
5BB
330
5B6
100
AcDbEntity
  8
PROFILE
100
AcDbLine
 10
15.60207238374206
 20
4.044320932551642
 30
0.0
 11
15.81707238374206
 21
4.044320932551641
 31
0.0
  0
LINE
  5
5BC
330
5B6
100
AcDbEntity
  8
PROFILE
100
AcDbLine
 10
15.47707238374207
 20
3.919320932551641
 30
0.0
 11
15.81707238374206
 21
3.919320932551641
 31
0.0
  0
LINE
  5
5BD
330
5B6
100
AcDbEntity
  8
PROFILE
100
AcDbLine
 10
15.81707238374207
 20
3.919320932551642
 30
0.0
 11
15.81707238374206
 21
4.044320932551641
 31
0.0
  0
LINE
  5
5BE
330
5B6
100
AcDbEntity
  8
PROFILE
100
AcDbLine
 10
16.31707238374207
 20
3.919320932551641
 30
0.0
 11
16.65707238374206
 21
3.919320932551642
 31
0.0
  0
LINE
  5
5BF
330
5B6
100
AcDbEntity
  8
PROFILE
100
AcDbLine
 10
16.31707238374207
 20
3.919320932551642
 30
0.0
 11
16.31707238374206
 21
4.04432093255164
 31
0.0
  0
LINE
  5
5C0
330
5B6
100
AcDbEntity
  8
PROFILE
100
AcDbLine
 10
16.31707238374206
 20
4.04432093255164
 30
0.0
 11
16.53207238374206
 21
4.044320932551642
 31
0.0
  0
LINE
  5
5C1
330
5B6
100
AcDbEntity
  8
PROFILE
100
AcDbLine
 10
15.60207238374206
 20
5.014320932551641
 30
0.0
 11
16.53207238374207
 21
5.014320932551641
 31
0.0
  0
LINE
  5
5C2
330
5B6
100
AcDbEntity
  8
PROFILE
100
AcDbLine
 10
15.47707238374206
 20
5.13932093255164
 30
0.0
 11
16.65707238374206
 21
5.13932093255164
 31
0.0
  0
ENDBLK
  5
5C4
330
5B6
100
AcDbEntity
  8
0
100
AcDbBlockEnd
  0
ENDSEC
  0
SECTION
  2
ENTITIES
  0
TEXT
  5
865
330
2
100
AcDbEntity
  8
ALL
 62
     1
100
AcDbText
 10
9.44500191110208
 20
4.832288637389287
 30
0.0
 40
0.075
  1
3/4" x 3 1/2"
 41
1.25
  7
TEST
 72
     1
 11
10.00973405395922
 21
4.832288637389287
 31
0.0
100
AcDbText
  0
TEXT
  5
866
330
2
100
AcDbEntity
  8
ALL
 62
     1
100
AcDbText
 10
9.515171829289618
 20
4.977080061581927
 30
0.0
 40
0.125
  1
BWP-2013
 41
1.25
  7
PANROMAN
 72
     1
 11
10.00973405395922
 21
4.977080061581927
 31
0.0
100
AcDbText
  0
LINE
  5
867
330
2
100
AcDbEntity
  8
ALL
 62
     3
100
AcDbLine
 10
9.754712397736421
 20
8.881737167778286
 30
0.0
 11
9.754712397736421
 21
8.165120474855488
 31
0.0
  0
ARC
  5
868
330
2
100
AcDbEntity
  8
ALL
 62
     3
100
AcDbCircle
 10
9.789735221592616
 20
5.631737167778287
 30
0.0
 40
0.25
100
AcDbArc
 50
261.9468708473889
 51
359.9999999999996
  0
POLYLINE
  5
869
330
2
100
AcDbEntity
  8
ALL
 62
     3
100
AcDb2dPolyline
 66
     1
 10
0.0
 20
0.0
 30
0.0
 70
     4
 75
     6
  0
VERTEX
  5
86A
330
869
100
AcDbEntity
  8
ALL
 62
     3
100
AcDbVertex
100
AcDb2dVertex
 10
10.41096239773642
 20
8.194237167778286
 30
0.0
 70
    16
  0
VERTEX
  5
86B
330
869
100
AcDbEntity
  8
ALL
 62
     3
100
AcDbVertex
100
AcDb2dVertex
 10
10.41096239773642
 20
8.194237167778286
 30
0.0
 70
     8
  0
VERTEX
  5
86C
330
869
100
AcDbEntity
  8
ALL
 62
     3
100
AcDbVertex
100
AcDb2dVertex
 10
10.41422337852159
 20
8.180638168180994
 30
0.0
 70
     8
  0
VERTEX
  5
86D
330
869
100
AcDbEntity
  8
ALL
 62
     3
100
AcDbVertex
100
AcDb2dVertex
 10
10.41830586440019
 20
8.166847180652784
 30
0.0
 70
     8
  0
VERTEX
  5
86E
330
869
100
AcDbEntity
  8
ALL
 62
     3
100
AcDbVertex
100
AcDb2dVertex
 10
10.42304226886588
 20
8.152886606312481
 30
0.0
 70
     8
  0
VERTEX
  5
86F
330
869
100
AcDbEntity
  8
ALL
 62
     3
100
AcDbVertex
100
AcDb2dVertex
 10
10.42826500541243
 20
8.138778846278885
 30
0.0
 70
     8
  0
VERTEX
  5
870
330
869
100
AcDbEntity
  8
ALL
 62
     3
100
AcDbVertex
100
AcDb2dVertex
 10
10.43380648753352
 20
8.124546301670793
 30
0.0
 70
     8
  0
VERTEX
  5
871
330
869
100
AcDbEntity
  8
ALL
 62
     3
100
AcDbVertex
100
AcDb2dVertex
 10
10.43949912872286
 20
8.11021137360699
 30
0.0
 70
     8
  0
VERTEX
  5
872
330
869
100
AcDbEntity
  8
ALL
 62
     3
100
AcDbVertex
100
AcDb2dVertex
 10
10.44517534247409
 20
8.095796463206315
 30
0.0
 70
     8
  0
VERTEX
  5
873
330
869
100
AcDbEntity
  8
ALL
 62
     3
100
AcDbVertex
100
AcDb2dVertex
 10
10.45066754228099
 20
8.081323971587554
 30
0.0
 70
     8
  0
VERTEX
  5
874
330
869
100
AcDbEntity
  8
ALL
 62
     3
100
AcDbVertex
100
AcDb2dVertex
 10
10.45583753771185
 20
8.066823559870332
 30
0.0
 70
     8
  0
VERTEX
  5
875
330
869
100
AcDbEntity
  8
ALL
 62
     3
100
AcDbVertex
100
AcDb2dVertex
 10
10.46066472263379
 20
8.05235392917746
 30
0.0
 70
     8
  0
VERTEX
  5
876
330
869
100
AcDbEntity
  8
ALL
 62
     3
100
AcDbVertex
100
AcDb2dVertex
 10
10.46515788698845
 20
8.037981040632605
 30
0.0
 70
     8
  0
VERTEX
  5
877
330
869
100
AcDbEntity
  8
ALL
 62
     3
100
AcDbVertex
100
AcDb2dVertex
 10
10.4693258207176
 20
8.023770855359405
 30
0.0
 70
     8
  0
VERTEX
  5
878
330
869
100
AcDbEntity
  8
ALL
 62
     3
100
AcDbVertex
100
AcDb2dVertex
 10
10.47317731376286
 20
8.009789334481528
 30
0.0
 70
     8
  0
VERTEX
  5
879
330
869
100
AcDbEntity
  8
ALL
 62
     3
100
AcDbVertex
100
AcDb2dVertex
 10
10.47672115606607
 20
7.996102439122585
 30
0.0
 70
     8
  0
VERTEX
  5
87A
330
869
100
AcDbEntity
  8
ALL
 62
     3
100
AcDbVertex
100
AcDb2dVertex
 10
10.47996613756881
 20
7.982776130406254
 30
0.0
 70
     8
  0
VERTEX
  5
87B
330
869
100
AcDbEntity
  8
ALL
 62
     3
100
AcDbVertex
100
AcDb2dVertex
 10
10.48292104821282
 20
7.969876369456163
 30
0.0
 70
     8
  0
VERTEX
  5
87C
330
869
100
AcDbEntity
  8
ALL
 62
     3
100
AcDbVertex
100
AcDb2dVertex
 10
10.48559174795931
 20
7.957430273682679
 30
0.0
 70
     8
  0
VERTEX
  5
87D
330
869
100
AcDbEntity
  8
ALL
 62
     3
100
AcDbVertex
100
AcDb2dVertex
 10
10.48797237684706
 20
7.945309585642978
 30
0.0
 70
     8
  0
VERTEX
  5
87E
330
869
100
AcDbEntity
  8
ALL
 62
     3
100
AcDbVertex
100
AcDb2dVertex
 10
10.49005414493441
 20
7.933347204180994
 30
0.0
 70
     8
  0
VERTEX
  5
87F
330
869
100
AcDbEntity
  8
ALL
 62
     3
100
AcDbVertex
100
AcDb2dVertex
 10
10.49182826227962
 20
7.921376028140618
 30
0.0
 70
     8
  0
VERTEX
  5
880
330
869
100
AcDbEntity
  8
ALL
 62
     3
100
AcDbVertex
100
AcDb2dVertex
 10
10.49328593894099
 20
7.909228956365756
 30
0.0
 70
     8
  0
VERTEX
  5
881
330
869
100
AcDbEntity
  8
ALL
 62
     3
100
AcDbVertex
100
AcDb2dVertex
 10
10.49441838497682
 20
7.896738887700313
 30
0.0
 70
     8
  0
VERTEX
  5
882
330
869
100
AcDbEntity
  8
ALL
 62
     3
100
AcDbVertex
100
AcDb2dVertex
 10
10.4952168104454
 20
7.883738720988195
 30
0.0
 70
     8
  0
VERTEX
  5
883
330
869
100
AcDbEntity
  8
ALL
 62
     3
100
AcDbVertex
100
AcDb2dVertex
 10
10.49567242540504
 20
7.870061355073322
 30
0.0
 70
     8
  0
VERTEX
  5
884
330
869
100
AcDbEntity
  8
ALL
 62
     3
100
AcDbVertex
100
AcDb2dVertex
 10
10.49577497489885
 20
7.855585128595468
 30
0.0
 70
     8
  0
VERTEX
  5
885
330
869
100
AcDbEntity
  8
ALL
 62
     3
100
AcDbVertex
100
AcDb2dVertex
 10
10.49550834390955
 20
7.840370139378028
 30
0.0
 70
     8
  0
VERTEX
  5
886
330
869
100
AcDbEntity
  8
ALL
 62
     3
100
AcDbVertex
100
AcDb2dVertex
 10
10.49485495240463
 20
7.824521925040248
 30
0.0
 70
     8
  0
VERTEX
  5
887
330
869
100
AcDbEntity
  8
ALL
 62
     3
100
AcDbVertex
100
AcDb2dVertex
 10
10.49379722035163
 20
7.808146023201378
 30
0.0
 70
     8
  0
VERTEX
  5
888
330
869
100
AcDbEntity
  8
ALL
 62
     3
100
AcDbVertex
100
AcDb2dVertex
 10
10.49231756771805
 20
7.791347971480722
 30
0.0
 70
     8
  0
VERTEX
  5
889
330
869
100
AcDbEntity
  8
ALL
 62
     3
100
AcDbVertex
100
AcDb2dVertex
 10
10.4903984144715
 20
7.7742333074975
 30
0.0
 70
     8
  0
VERTEX
  5
88A
330
869
100
AcDbEntity
  8
ALL
 62
     3
100
AcDbVertex
100
AcDb2dVertex
 10
10.48802218057945
 20
7.756907568871018
 30
0.0
 70
     8
  0
VERTEX
  5
88B
330
869
100
AcDbEntity
  8
ALL
 62
     3
100
AcDbVertex
100
AcDb2dVertex
 10
10.48517128600942
 20
7.739476293220495
 30
0.0
 70
     8
  0
VERTEX
  5
88C
330
869
100
AcDbEntity
  8
ALL
 62
     3
100
AcDbVertex
100
AcDb2dVertex
 10
10.48184280073948
 20
7.722045018128004
 30
0.0
 70
     8
  0
VERTEX
  5
88D
330
869
100
AcDbEntity
  8
ALL
 62
     3
100
AcDbVertex
100
AcDb2dVertex
 10
10.47809239478959
 20
7.704719281026801
 30
0.0
 70
     8
  0
VERTEX
  5
88E
330
869
100
AcDbEntity
  8
ALL
 62
     3
100
AcDbVertex
100
AcDb2dVertex
 10
10.47399038819031
 20
7.687604619312939
 30
0.0
 70
     8
  0
VERTEX
  5
88F
330
869
100
AcDbEntity
  8
ALL
 62
     3
100
AcDbVertex
100
AcDb2dVertex
 10
10.46960710097212
 20
7.670806570382443
 30
0.0
 70
     8
  0
VERTEX
  5
890
330
869
100
AcDbEntity
  8
ALL
 62
     3
100
AcDbVertex
100
AcDb2dVertex
 10
10.46501285316556
 20
7.654430671631392
 30
0.0
 70
     8
  0
VERTEX
  5
891
330
869
100
AcDbEntity
  8
ALL
 62
     3
100
AcDbVertex
100
AcDb2dVertex
 10
10.46027796480114
 20
7.638582460455812
 30
0.0
 70
     8
  0
VERTEX
  5
892
330
869
100
AcDbEntity
  8
ALL
 62
     3
100
AcDbVertex
100
AcDb2dVertex
 10
10.45547275590936
 20
7.623367474251769
 30
0.0
 70
     8
  0
VERTEX
  5
893
330
869
100
AcDbEntity
  8
ALL
 62
     3
100
AcDbVertex
100
AcDb2dVertex
 10
10.45066754652074
 20
7.608891250415301
 30
0.0
 70
     8
  0
VERTEX
  5
894
330
869
100
AcDbEntity
  8
ALL
 62
     3
100
AcDbVertex
100
AcDb2dVertex
 10
10.4459121466693
 20
7.595215352396427
 30
0.0
 70
     8
  0
VERTEX
  5
895
330
869
100
AcDbEntity
  8
ALL
 62
     3
100
AcDbVertex
100
AcDb2dVertex
 10
10.44117432640316
 20
7.582225447861081
 30
0.0
 70
     8
  0
VERTEX
  5
896
330
869
100
AcDbEntity
  8
ALL
 62
     3
100
AcDbVertex
100
AcDb2dVertex
 10
10.43640134577398
 20
7.569763230529194
 30
0.0
 70
     8
  0
VERTEX
  5
897
330
869
100
AcDbEntity
  8
ALL
 62
     3
100
AcDbVertex
100
AcDb2dVertex
 10
10.43154046483339
 20
7.557670394120667
 30
0.0
 70
     8
  0
VERTEX
  5
898
330
869
100
AcDbEntity
  8
ALL
 62
     3
100
AcDbVertex
100
AcDb2dVertex
 10
10.42653894363305
 20
7.545788632355443
 30
0.0
 70
     8
  0
VERTEX
  5
899
330
869
100
AcDbEntity
  8
ALL
 62
     3
100
AcDbVertex
100
AcDb2dVertex
 10
10.42134404222456
 20
7.533959638953409
 30
0.0
 70
     8
  0
VERTEX
  5
89A
330
869
100
AcDbEntity
  8
ALL
 62
     3
100
AcDbVertex
100
AcDb2dVertex
 10
10.41590302065963
 20
7.522025107634509
 30
0.0
 70
     8
  0
VERTEX
  5
89B
330
869
100
AcDbEntity
  8
ALL
 62
     3
100
AcDbVertex
100
AcDb2dVertex
 10
10.41016313898986
 20
7.50982673211863
 30
0.0
 70
     8
  0
VERTEX
  5
89C
330
869
100
AcDbEntity
  8
ALL
 62
     3
100
AcDbVertex
100
AcDb2dVertex
 10
10.40409363226191
 20
7.497239919519462
 30
0.0
 70
     8
  0
VERTEX
  5
89D
330
869
100
AcDbEntity
  8
ALL
 62
     3
100
AcDbVertex
100
AcDb2dVertex
 10
10.3977516355027
 20
7.484274930525661
 30
0.0
 70
     8
  0
VERTEX
  5
89E
330
869
100
AcDbEntity
  8
ALL
 62
     3
100
AcDbVertex
100
AcDb2dVertex
 10
10.39121625873411
 20
7.470975739219686
 30
0.0
 70
     8
  0
VERTEX
  5
89F
330
869
100
AcDbEntity
  8
ALL
 62
     3
100
AcDbVertex
100
AcDb2dVertex
 10
10.38456661197803
 20
7.457386319683952
 30
0.0
 70
     8
  0
VERTEX
  5
8A0
330
869
100
AcDbEntity
  8
ALL
 62
     3
100
AcDbVertex
100
AcDb2dVertex
 10
10.3778818052564
 20
7.443550646000891
 30
0.0
 70
     8
  0
VERTEX
  5
8A1
330
869
100
AcDbEntity
  8
ALL
 62
     3
100
AcDbVertex
100
AcDb2dVertex
 10
10.37124094859106
 20
7.429512692252932
 30
0.0
 70
     8
  0
VERTEX
  5
8A2
330
869
100
AcDbEntity
  8
ALL
 62
     3
100
AcDbVertex
100
AcDb2dVertex
 10
10.36472315200401
 20
7.415316432522506
 30
0.0
 70
     8
  0
VERTEX
  5
8A3
330
869
100
AcDbEntity
  8
ALL
 62
     3
100
AcDbVertex
100
AcDb2dVertex
 10
10.35840752551709
 20
7.401005840892058
 30
0.0
 70
     8
  0
VERTEX
  5
8A4
330
869
100
AcDbEntity
  8
ALL
 62
     3
100
AcDbVertex
100
AcDb2dVertex
 10
10.35234973914202
 20
7.386619028205733
 30
0.0
 70
     8
  0
VERTEX
  5
8A5
330
869
100
AcDbEntity
  8
ALL
 62
     3
100
AcDbVertex
100
AcDb2dVertex
 10
10.3465117028499
 20
7.372170652354587
 30
0.0
 70
     8
  0
VERTEX
  5
8A6
330
869
100
AcDbEntity
  8
ALL
 62
     3
100
AcDbVertex
100
AcDb2dVertex
 10
10.34083188660158
 20
7.357669507991436
 30
0.0
 70
     8
  0
VERTEX
  5
8A7
330
869
100
AcDbEntity
  8
ALL
 62
     3
100
AcDbVertex
100
AcDb2dVertex
 10
10.33524876035798
 20
7.343124389769077
 30
0.0
 70
     8
  0
VERTEX
  5
8A8
330
869
100
AcDbEntity
  8
ALL
 62
     3
100
AcDbVertex
100
AcDb2dVertex
 10
10.3297007940799
 20
7.328544092340284
 30
0.0
 70
     8
  0
VERTEX
  5
8A9
330
869
100
AcDbEntity
  8
ALL
 62
     3
100
AcDbVertex
100
AcDb2dVertex
 10
10.32412645772833
 20
7.313937410357884
 30
0.0
 70
     8
  0
VERTEX
  5
8AA
330
869
100
AcDbEntity
  8
ALL
 62
     3
100
AcDbVertex
100
AcDb2dVertex
 10
10.31846422126406
 20
7.299313138474635
 30
0.0
 70
     8
  0
VERTEX
  5
8AB
330
869
100
AcDbEntity
  8
ALL
 62
     3
100
AcDbVertex
100
AcDb2dVertex
 10
10.31265255464799
 20
7.284680071343363
 30
0.0
 70
     8
  0
VERTEX
  5
8AC
330
869
100
AcDbEntity
  8
ALL
 62
     3
100
AcDbVertex
100
AcDb2dVertex
 10
10.30664897286382
 20
7.270045537866171
 30
0.0
 70
     8
  0
VERTEX
  5
8AD
330
869
100
AcDbEntity
  8
ALL
 62
     3
100
AcDbVertex
100
AcDb2dVertex
 10
10.30048717098611
 20
7.255411003942573
 30
0.0
 70
     8
  0
VERTEX
  5
8AE
330
869
100
AcDbEntity
  8
ALL
 62
     3
100
AcDbVertex
100
AcDb2dVertex
 10
10.29421988911232
 20
7.240776469721343
 30
0.0
 70
     8
  0
VERTEX
  5
8AF
330
869
100
AcDbEntity
  8
ALL
 62
     3
100
AcDbVertex
100
AcDb2dVertex
 10
10.28789986733988
 20
7.226141935351312
 30
0.0
 70
     8
  0
VERTEX
  5
8B0
330
869
100
AcDbEntity
  8
ALL
 62
     3
100
AcDbVertex
100
AcDb2dVertex
 10
10.28157984576616
 20
7.21150740098128
 30
0.0
 70
     8
  0
VERTEX
  5
8B1
330
869
100
AcDbEntity
  8
ALL
 62
     3
100
AcDbVertex
100
AcDb2dVertex
 10
10.27531256448861
 20
7.196872866760036
 30
0.0
 70
     8
  0
VERTEX
  5
8B2
330
869
100
AcDbEntity
  8
ALL
 62
     3
100
AcDbVertex
100
AcDb2dVertex
 10
10.26915076360457
 20
7.182238332836424
 30
0.0
 70
     8
  0
VERTEX
  5
8B3
330
869
100
AcDbEntity
  8
ALL
 62
     3
100
AcDbVertex
100
AcDb2dVertex
 10
10.26314718321156
 20
7.16760379935926
 30
0.0
 70
     8
  0
VERTEX
  5
8B4
330
869
100
AcDbEntity
  8
ALL
 62
     3
100
AcDbVertex
100
AcDb2dVertex
 10
10.25734430837555
 20
7.152963403239032
 30
0.0
 70
     8
  0
VERTEX
  5
8B5
330
869
100
AcDbEntity
  8
ALL
 62
     3
100
AcDbVertex
100
AcDb2dVertex
 10
10.25174360403715
 20
7.138287828433239
 30
0.0
 70
     8
  0
VERTEX
  5
8B6
330
869
100
AcDbEntity
  8
ALL
 62
     3
100
AcDbVertex
100
AcDb2dVertex
 10
10.24633628010561
 20
7.123541895661024
 30
0.0
 70
     8
  0
VERTEX
  5
8B7
330
869
100
AcDbEntity
  8
ALL
 62
     3
100
AcDbVertex
100
AcDb2dVertex
 10
10.24111354649019
 20
7.108690425641587
 30
0.0
 70
     8
  0
VERTEX
  5
8B8
330
869
100
AcDbEntity
  8
ALL
 62
     3
100
AcDbVertex
100
AcDb2dVertex
 10
10.23606661310005
 20
7.093698239094071
 30
0.0
 70
     8
  0
VERTEX
  5
8B9
330
869
100
AcDbEntity
  8
ALL
 62
     3
100
AcDbVertex
100
AcDb2dVertex
 10
10.23118668984454
 20
7.07853015673766
 30
0.0
 70
     8
  0
VERTEX
  5
8BA
330
869
100
AcDbEntity
  8
ALL
 62
     3
100
AcDbVertex
100
AcDb2dVertex
 10
10.2264649866328
 20
7.063150999291541
 30
0.0
 70
     8
  0
VERTEX
  5
8BB
330
869
100
AcDbEntity
  8
ALL
 62
     3
100
AcDbVertex
100
AcDb2dVertex
 10
10.22189271337415
 20
7.047525587474884
 30
0.0
 70
     8
  0
VERTEX
  5
8BC
330
869
100
AcDbEntity
  8
ALL
 62
     3
100
AcDbVertex
100
AcDb2dVertex
 10
10.21746694001341
 20
7.031623139432473
 30
0.0
 70
     8
  0
VERTEX
  5
8BD
330
869
100
AcDbEntity
  8
ALL
 62
     3
100
AcDbVertex
100
AcDb2dVertex
 10
10.21320817663822
 20
7.015430463011473
 30
0.0
 70
     8
  0
VERTEX
  5
8BE
330
869
100
AcDbEntity
  8
ALL
 62
     3
100
AcDbVertex
100
AcDb2dVertex
 10
10.20914279337176
 20
6.99893876348472
 30
0.0
 70
     8
  0
VERTEX
  5
8BF
330
869
100
AcDbEntity
  8
ALL
 62
     3
100
AcDbVertex
100
AcDb2dVertex
 10
10.20529716033728
 20
6.982139246125005
 30
0.0
 70
     8
  0
VERTEX
  5
8C0
330
869
100
AcDbEntity
  8
ALL
 62
     3
100
AcDbVertex
100
AcDb2dVertex
 10
10.20169764765804
 20
6.965023116205107
 30
0.0
 70
     8
  0
VERTEX
  5
8C1
330
869
100
AcDbEntity
  8
ALL
 62
     3
100
AcDbVertex
100
AcDb2dVertex
 10
10.19837062545723
 20
6.947581578997845
 30
0.0
 70
     8
  0
VERTEX
  5
8C2
330
869
100
AcDbEntity
  8
ALL
 62
     3
100
AcDbVertex
100
AcDb2dVertex
 10
10.1953424638581
 20
6.929805839776013
 30
0.0
 70
     8
  0
VERTEX
  5
8C3
330
869
100
AcDbEntity
  8
ALL
 62
     3
100
AcDbVertex
100
AcDb2dVertex
 10
10.19263953298388
 20
6.91168710381243
 30
0.0
 70
     8
  0
VERTEX
  5
8C4
330
869
100
AcDbEntity
  8
ALL
 62
     3
100
AcDbVertex
100
AcDb2dVertex
 10
10.1902764829196
 20
6.893226836956931
 30
0.0
 70
     8
  0
VERTEX
  5
8C5
330
869
100
AcDbEntity
  8
ALL
 62
     3
100
AcDbVertex
100
AcDb2dVertex
 10
10.18822108359747
 20
6.87446754736769
 30
0.0
 70
     8
  0
VERTEX
  5
8C6
330
869
100
AcDbEntity
  8
ALL
 62
     3
100
AcDbVertex
100
AcDb2dVertex
 10
10.18642938491143
 20
6.855462003779938
 30
0.0
 70
     8
  0
VERTEX
  5
8C7
330
869
100
AcDbEntity
  8
ALL
 62
     3
100
AcDbVertex
100
AcDb2dVertex
 10
10.18485743675548
 20
6.836262974928904
 30
0.0
 70
     8
  0
VERTEX
  5
8C8
330
869
100
AcDbEntity
  8
ALL
 62
     3
100
AcDbVertex
100
AcDb2dVertex
 10
10.18346128902359
 20
6.81692322954979
 30
0.0
 70
     8
  0
VERTEX
  5
8C9
330
869
100
AcDbEntity
  8
ALL
 62
     3
100
AcDbVertex
100
AcDb2dVertex
 10
10.18219699160976
 20
6.797495536377856
 30
0.0
 70
     8
  0
VERTEX
  5
8CA
330
869
100
AcDbEntity
  8
ALL
 62
     3
100
AcDbVertex
100
AcDb2dVertex
 10
10.18102059440797
 20
6.778032664148303
 30
0.0
 70
     8
  0
VERTEX
  5
8CB
330
869
100
AcDbEntity
  8
ALL
 62
     3
100
AcDbVertex
100
AcDb2dVertex
 10
10.17988814731219
 20
6.758587381596361
 30
0.0
 70
     8
  0
VERTEX
  5
8CC
330
869
100
AcDbEntity
  8
ALL
 62
     3
100
AcDbVertex
100
AcDb2dVertex
 10
10.17876595523952
 20
6.73920366266805
 30
0.0
 70
     8
  0
VERTEX
  5
8CD
330
869
100
AcDbEntity
  8
ALL
 62
     3
100
AcDbVertex
100
AcDb2dVertex
 10
10.1776613431993
 20
6.719890302152596
 30
0.0
 70
     8
  0
VERTEX
  5
8CE
330
869
100
AcDbEntity
  8
ALL
 62
     3
100
AcDbVertex
100
AcDb2dVertex
 10
10.17659189122402
 20
6.700647300049983
 30
0.0
 70
     8
  0
VERTEX
  5
8CF
330
869
100
AcDbEntity
  8
ALL
 62
     3
100
AcDbVertex
100
AcDb2dVertex
 10
10.17557517934616
 20
6.681474656360198
 30
0.0
 70
     8
  0
VERTEX
  5
8D0
330
869
100
AcDbEntity
  8
ALL
 62
     3
100
AcDbVertex
100
AcDb2dVertex
 10
10.17462878759817
 20
6.662372371083269
 30
0.0
 70
     8
  0
VERTEX
  5
8D1
330
869
100
AcDbEntity
  8
ALL
 62
     3
100
AcDbVertex
100
AcDb2dVertex
 10
10.17377029601251
 20
6.643340444219181
 30
0.0
 70
     8
  0
VERTEX
  5
8D2
330
869
100
AcDbEntity
  8
ALL
 62
     3
100
AcDbVertex
100
AcDb2dVertex
 10
10.17301728462171
 20
6.624378875767921
 30
0.0
 70
     8
  0
VERTEX
  5
8D3
330
869
100
AcDbEntity
  8
ALL
 62
     3
100
AcDbVertex
100
AcDb2dVertex
 10
10.17238733345819
 20
6.605487665729502
 30
0.0
 70
     8
  0
VERTEX
  5
8D4
330
869
100
AcDbEntity
  8
ALL
 62
     3
100
AcDbVertex
100
AcDb2dVertex
 10
10.1719024175667
 20
6.586658019302324
 30
0.0
 70
     8
  0
VERTEX
  5
8D5
330
869
100
AcDbEntity
  8
ALL
 62
     3
100
AcDbVertex
100
AcDb2dVertex
 10
10.17160209204097
 20
6.567845962478377
 30
0.0
 70
     8
  0
VERTEX
  5
8D6
330
869
100
AcDbEntity
  8
ALL
 62
     3
100
AcDbVertex
100
AcDb2dVertex
 10
10.17153030698707
 20
6.54899872644798
 30
0.0
 70
     8
  0
VERTEX
  5
8D7
330
869
100
AcDbEntity
  8
ALL
 62
     3
100
AcDbVertex
100
AcDb2dVertex
 10
10.17173101251094
 20
6.530063542401539
 30
0.0
 70
     8
  0
VERTEX
  5
8D8
330
869
100
AcDbEntity
  8
ALL
 62
     3
100
AcDbVertex
100
AcDb2dVertex
 10
10.17224815871869
 20
6.510987641529429
 30
0.0
 70
     8
  0
VERTEX
  5
8D9
330
869
100
AcDbEntity
  8
ALL
 62
     3
100
AcDbVertex
100
AcDb2dVertex
 10
10.17312569571626
 20
6.491718255021997
 30
0.0
 70
     8
  0
VERTEX
  5
8DA
330
869
100
AcDbEntity
  8
ALL
 62
     3
100
AcDbVertex
100
AcDb2dVertex
 10
10.17440757360972
 20
6.472202614069606
 30
0.0
 70
     8
  0
VERTEX
  5
8DB
330
869
100
AcDbEntity
  8
ALL
 62
     3
100
AcDbVertex
100
AcDb2dVertex
 10
10.17613774250508
 20
6.452387949862644
 30
0.0
 70
     8
  0
VERTEX
  5
8DC
330
869
100
AcDbEntity
  8
ALL
 62
     3
100
AcDbVertex
100
AcDb2dVertex
 10
10.17833964245388
 20
6.432259604386051
 30
0.0
 70
     8
  0
VERTEX
  5
8DD
330
869
100
AcDbEntity
  8
ALL
 62
     3
100
AcDbVertex
100
AcDb2dVertex
 10
10.18095467328995
 20
6.411955362802932
 30
0.0
 70
     8
  0
VERTEX
  5
8DE
330
869
100
AcDbEntity
  8
ALL
 62
     3
100
AcDbVertex
100
AcDb2dVertex
 10
10.18390372479265
 20
6.391651121070997
 30
0.0
 70
     8
  0
VERTEX
  5
8DF
330
869
100
AcDbEntity
  8
ALL
 62
     3
100
AcDbVertex
100
AcDb2dVertex
 10
10.18710768674133
 20
6.371522775147956
 30
0.0
 70
     8
  0
VERTEX
  5
8E0
330
869
100
AcDbEntity
  8
ALL
 62
     3
100
AcDbVertex
100
AcDb2dVertex
 10
10.19048744891534
 20
6.351746220991519
 30
0.0
 70
     8
  0
VERTEX
  5
8E1
330
869
100
AcDbEntity
  8
ALL
 62
     3
100
AcDbVertex
100
AcDb2dVertex
 10
10.19396390109403
 20
6.332497354559341
 30
0.0
 70
     8
  0
VERTEX
  5
8E2
330
869
100
AcDbEntity
  8
ALL
 62
     3
100
AcDbVertex
100
AcDb2dVertex
 10
10.19745793305676
 20
6.313952071809173
 30
0.0
 70
     8
  0
VERTEX
  5
8E3
330
869
100
AcDbEntity
  8
ALL
 62
     3
100
AcDbVertex
100
AcDb2dVertex
 10
10.20089043458292
 20
6.296286268698684
 30
0.0
 70
     8
  0
VERTEX
  5
8E4
330
869
100
AcDbEntity
  8
ALL
 62
     3
100
AcDbVertex
100
AcDb2dVertex
 10
10.20418888799505
 20
6.279640661972952
 30
0.0
 70
     8
  0
VERTEX
  5
8E5
330
869
100
AcDbEntity
  8
ALL
 62
     3
100
AcDbVertex
100
AcDb2dVertex
 10
10.20730714578868
 20
6.264015251526591
 30
0.0
 70
     8
  0
VERTEX
  5
8E6
330
869
100
AcDbEntity
  8
ALL
 62
     3
100
AcDbVertex
100
AcDb2dVertex
 10
10.21020565300255
 20
6.249374858041538
 30
0.0
 70
     8
  0
VERTEX
  5
8E7
330
869
100
AcDbEntity
  8
ALL
 62
     3
100
AcDbVertex
100
AcDb2dVertex
 10
10.21284485467534
 20
6.235684302199804
 30
0.0
 70
     8
  0
VERTEX
  5
8E8
330
869
100
AcDbEntity
  8
ALL
 62
     3
100
AcDbVertex
100
AcDb2dVertex
 10
10.21518519584585
 20
6.222908404683328
 30
0.0
 70
     8
  0
VERTEX
  5
8E9
330
869
100
AcDbEntity
  8
ALL
 62
     3
100
AcDbVertex
100
AcDb2dVertex
 10
10.21718712155279
 20
6.211011986174104
 30
0.0
 70
     8
  0
VERTEX
  5
8EA
330
869
100
AcDbEntity
  8
ALL
 62
     3
100
AcDbVertex
100
AcDb2dVertex
 10
10.21881107683486
 20
6.1999598673541
 30
0.0
 70
     8
  0
VERTEX
  5
8EB
330
869
100
AcDbEntity
  8
ALL
 62
     3
100
AcDbVertex
100
AcDb2dVertex
 10
10.22001750673083
 20
6.189716868905283
 30
0.0
 70
     8
  0
VERTEX
  5
8EC
330
869
100
AcDbEntity
  8
ALL
 62
     3
100
AcDbVertex
100
AcDb2dVertex
 10
10.22075843114552
 20
6.180252171856413
 30
0.0
 70
     8
  0
VERTEX
  5
8ED
330
869
100
AcDbEntity
  8
ALL
 62
     3
100
AcDbVertex
100
AcDb2dVertex
 10
10.2209521694481
 20
6.171552398623423
 30
0.0
 70
     8
  0
VERTEX
  5
8EE
330
869
100
AcDbEntity
  8
ALL
 62
     3
100
AcDbVertex
100
AcDb2dVertex
 10
10.22050861587393
 20
6.163608531969022
 30
0.0
 70
     8
  0
VERTEX
  5
8EF
330
869
100
AcDbEntity
  8
ALL
 62
     3
100
AcDbVertex
100
AcDb2dVertex
 10
10.21933766465832
 20
6.156411554655936
 30
0.0
 70
     8
  0
VERTEX
  5
8F0
330
869
100
AcDbEntity
  8
ALL
 62
     3
100
AcDbVertex
100
AcDb2dVertex
 10
10.21734921003652
 20
6.149952449446861
 30
0.0
 70
     8
  0
VERTEX
  5
8F1
330
869
100
AcDbEntity
  8
ALL
 62
     3
100
AcDbVertex
100
AcDb2dVertex
 10
10.21445314624392
 20
6.144222199104523
 30
0.0
 70
     8
  0
VERTEX
  5
8F2
330
869
100
AcDbEntity
  8
ALL
 62
     3
100
AcDbVertex
100
AcDb2dVertex
 10
10.21055936751576
 20
6.139211786391631
 30
0.0
 70
     8
  0
VERTEX
  5
8F3
330
869
100
AcDbEntity
  8
ALL
 62
     3
100
AcDbVertex
100
AcDb2dVertex
 10
10.2055777680874
 20
6.134912194070897
 30
0.0
 70
     8
  0
VERTEX
  5
8F4
330
869
100
AcDbEntity
  8
ALL
 62
     3
100
AcDbVertex
100
AcDb2dVertex
 10
10.41841404058888
 20
8.158249064865646
 30
0.0
 70
    16
  0
VERTEX
  5
8F5
330
869
100
AcDbEntity
  8
ALL
 62
     3
100
AcDbVertex
100
AcDb2dVertex
 10
10.45441794708809
 20
8.081699225979864
 30
0.0
 70
    16
  0
VERTEX
  5
8F6
330
869
100
AcDbEntity
  8
ALL
 62
     3
100
AcDbVertex
100
AcDb2dVertex
 10
10.48592137799419
 20
7.964622941297339
 30
0.0
 70
    16
  0
VERTEX
  5
8F7
330
869
100
AcDbEntity
  8
ALL
 62
     3
100
AcDbVertex
100
AcDb2dVertex
 10
10.49942283021217
 20
7.879067225567827
 30
0.0
 70
    16
  0
VERTEX
  5
8F8
330
869
100
AcDbEntity
  8
ALL
 62
     3
100
AcDbVertex
100
AcDb2dVertex
 10
10.49042185358734
 20
7.73947628687127
 30
0.0
 70
    16
  0
VERTEX
  5
8F9
330
869
100
AcDbEntity
  8
ALL
 62
     3
100
AcDbVertex
100
AcDb2dVertex
 10
10.44991747149495
 20
7.599885386269993
 30
0.0
 70
    16
  0
VERTEX
  5
8FA
330
869
100
AcDbEntity
  8
ALL
 62
     3
100
AcDbVertex
100
AcDb2dVertex
 10
10.41391353955722
 20
7.514329670540495
 30
0.0
 70
    16
  0
VERTEX
  5
8FB
330
869
100
AcDbEntity
  8
ALL
 62
     3
100
AcDbVertex
100
AcDb2dVertex
 10
10.35540720421522
 20
7.40175632427982
 30
0.0
 70
    16
  0
VERTEX
  5
8FC
330
869
100
AcDbEntity
  8
ALL
 62
     3
100
AcDbVertex
100
AcDb2dVertex
 10
10.31490279668434
 20
7.284680077692574
 30
0.0
 70
    16
  0
VERTEX
  5
8FD
330
869
100
AcDbEntity
  8
ALL
 62
     3
100
AcDbVertex
100
AcDb2dVertex
 10
10.26089693693549
 20
7.167603793010049
 30
0.0
 70
    16
  0
VERTEX
  5
8FE
330
869
100
AcDbEntity
  8
ALL
 62
     3
100
AcDbVertex
100
AcDb2dVertex
 10
10.22039255484309
 20
7.050527546422789
 30
0.0
 70
    16
  0
VERTEX
  5
8FF
330
869
100
AcDbEntity
  8
ALL
 62
     3
100
AcDbVertex
100
AcDb2dVertex
 10
10.18888912393702
 20
6.915439546148097
 30
0.0
 70
    16
  0
VERTEX
  5
900
330
869
100
AcDbEntity
  8
ALL
 62
     3
100
AcDbVertex
100
AcDb2dVertex
 10
10.17988814731219
 20
6.757836891859388
 30
0.0
 70
    16
  0
VERTEX
  5
901
330
869
100
AcDbEntity
  8
ALL
 62
     3
100
AcDbVertex
100
AcDb2dVertex
 10
10.17088717068738
 20
6.604737175992529
 30
0.0
 70
    16
  0
VERTEX
  5
902
330
869
100
AcDbEntity
  8
ALL
 62
     3
100
AcDbVertex
100
AcDb2dVertex
 10
10.17088717068738
 20
6.456140398547536
 30
0.0
 70
    16
  0
VERTEX
  5
903
330
869
100
AcDbEntity
  8
ALL
 62
     3
100
AcDbVertex
100
AcDb2dVertex
 10
10.20239060159345
 20
6.285028928993246
 30
0.0
 70
    16
  0
VERTEX
  5
904
330
869
100
AcDbEntity
  8
ALL
 62
     3
100
AcDbVertex
100
AcDb2dVertex
 10
10.22489303043624
 20
6.181461497671567
 30
0.0
 70
    16
  0
VERTEX
  5
905
330
869
100
AcDbEntity
  8
ALL
 62
     3
100
AcDbVertex
100
AcDb2dVertex
 10
10.22039255484309
 20
6.145438028391969
 30
0.0
 70
    16
  0
VERTEX
  5
906
330
869
100
AcDbEntity
  8
ALL
 62
     3
100
AcDbVertex
100
AcDb2dVertex
 10
10.2055777680874
 20
6.134912194070897
 30
0.0
 70
    16
  0
SEQEND
  5
907
330
869
100
AcDbEntity
  8
ALL
 62
     3
  0
LINE
  5
908
330
2
100
AcDbEntity
  8
ALL
 62
     3
100
AcDbLine
 10
9.82475799700378
 20
8.098930356802316
 30
0.0
 11
9.82475799700378
 21
6.45923338848127
 31
0.0
  0
LINE
  5
909
330
2
100
AcDbEntity
  8
ALL
 62
     3
100
AcDbLine
 10
9.754712397736421
 20
6.401164078936209
 30
0.0
 11
9.754712397736421
 21
5.381737167778287
 31
0.0
  0
LINE
  5
90A
330
2
100
AcDbEntity
  8
ALL
 62
     3
100
AcDbLine
 10
10.03973522159261
 20
5.631737167778287
 30
0.0
 11
10.06721239773642
 21
6.071702520083992
 31
0.0
  0
LINE
  5
90B
330
2
100
AcDbEntity
  8
ALL
 62
     3
100
AcDbLine
 10
10.06721239773642
 20
6.071702520083992
 30
0.0
 11
10.2055777680874
 21
6.134912194070897
 31
0.0
  0
LINE
  5
90C
330
2
100
AcDbEntity
  8
ALL
 62
     3
100
AcDbLine
 10
9.82475799700378
 20
6.45923338848127
 30
0.0
 11
9.754712397736421
 21
6.401164078936209
 31
0.0
  0
LINE
  5
90D
330
2
100
AcDbEntity
  8
ALL
 62
     3
100
AcDbLine
 10
9.754712397736421
 20
8.165120474855488
 30
0.0
 11
9.82475799700378
 21
8.098930356802316
 31
0.0
  0
LINE
  5
90E
330
2
100
AcDbEntity
  8
ALL
 62
     3
100
AcDbLine
 10
10.41096239773642
 20
8.256737167778286
 30
0.0
 11
10.41096239773642
 21
8.194237167778286
 31
0.0
  0
LINE
  5
90F
330
2
100
AcDbEntity
  8
ALL
 62
     3
100
AcDbLine
 10
10.50471239773642
 20
8.256737167778286
 30
0.0
 11
10.41096239773642
 21
8.256737167778286
 31
0.0
  0
LINE
  5
910
330
2
100
AcDbEntity
  8
ALL
 62
     3
100
AcDbLine
 10
9.754712397736421
 20
8.881737167778286
 30
0.0
 11
10.50471239773642
 21
8.881737167778286
 31
0.0
  0
LINE
  5
911
330
2
100
AcDbEntity
  8
ALL
 62
     3
100
AcDbLine
 10
10.50471239773642
 20
8.881737167778286
 30
0.0
 11
10.50471239773642
 21
8.256737167778286
 31
0.0
  0
VIEWPORT
  5
10F
330
7
100
AcDbEntity
 67
     1
  8
0
100
AcDbViewport
 10
7.329044117647058
 20
4.494742024799509
 30
0.0
 40
14.65808823529411
 41
9.0
 68
     1
 69
     1
 12
7.329044117647058
 22
4.494742024799509
 13
0.0
 23
0.0
 14
0.5
 24
0.5
 15
0.5
 25
0.5
 16
0.0
 26
0.0
 36
1.0
 17
0.0
 27
0.0
 37
0.0
 42
50.0
 43
0.0
 44
0.0
 45
9.0
 50
0.0
 51
0.0
 72
   100
 90
    32800
  1

281
     0
 71
     1
 74
     0
110
0.0
120
0.0
130
0.0
111
1.0
121
0.0
131
0.0
112
0.0
122
1.0
132
0.0
 79
     0
146
0.0
  0
ENDSEC
  0
SECTION
  2
OBJECTS
  0
DICTIONARY
  5
1A
330
0
100
AcDbDictionary
281
     1
  3
ACAD_GROUP
350
18
  3
ACAD_IMAGE_DICT
350
1E2
  3
ACAD_IMAGE_VARS
350
1E3
  3
ACAD_LAYOUT
350
16B
  3
ACAD_MLINESTYLE
350
19
  3
ACAD_PLOTSETTINGS
350
16C
  3
ACAD_PLOTSTYLENAME
350
169
  3
AcDbVariableDictionary
350
475
  3
DWGPROPS
350
172
  0
DICTIONARY
  5
18
102
{ACAD_REACTORS
330
1A
102
}
330
1A
100
AcDbDictionary
281
     1
  0
DICTIONARY
  5
1E2
102
{ACAD_REACTORS
330
1A
102
}
330
1A
100
AcDbDictionary
281
     1
  3
darlin
350
1E4
  3
sc
350
3D3
  0
RASTERVARIABLES
  5
1E3
102
{ACAD_REACTORS
330
1A
102
}
330
1A
100
AcDbRasterVariables
 90
        0
 70
     1
 71
     1
 72
     0
  0
DICTIONARY
  5
16B
102
{ACAD_REACTORS
330
1A
102
}
330
1A
100
AcDbDictionary
281
     1
  3
Layout1
350
16E
  3
Model
350
16D
  0
DICTIONARY
  5
19
102
{ACAD_REACTORS
330
1A
102
}
330
1A
100
AcDbDictionary
281
     1
  3
STANDARD
350
1C
  0
DICTIONARY
  5
16C
102
{ACAD_REACTORS
330
1A
102
}
330
1A
100
AcDbDictionary
281
     1
  0
ACDBDICTIONARYWDFLT
  5
169
102
{ACAD_REACTORS
330
1A
102
}
330
1A
100
AcDbDictionary
281
     1
  3
Normal
350
16A
100
AcDbDictionaryWithDefault
340
16A
  0
DICTIONARY
  5
475
102
{ACAD_REACTORS
330
1A
102
}
330
1A
100
AcDbDictionary
281
     1
  3
DIMASSOC
350
476
  0
XRECORD
  5
172
102
{ACAD_REACTORS
330
1A
102
}
330
1A
100
AcDbXrecord
280
     1
  1
DWGPROPS COOKIE
  2

  3

  4

  6

  7

  8
Benson Wood Products
  9

300
=
301
=
302
=
303
=
304
=
305
=
306
=
307
=
308
=
309
=
 40
0.1320853009259259
 41
2451257.51637963
 42
2453236.309322916
  1

 90
        0
  0
IMAGEDEF
  5
1E4
102
{ACAD_REACTORS
330
1E2
102
}
330
1E2
100
AcDbRasterImageDef
 90
        0
  1
C:\AutoCAD 2000i\scans\darlin.bmp
 10
661.0
 20
624.0
 11
0.0846668355628098
 21
0.0846668355628098
280
     1
281
     2
  0
IMAGEDEF
  5
3D3
102
{ACAD_REACTORS
330
1E2
102
}
330
1E2
100
AcDbRasterImageDef
 90
        0
  1
C:\AutoCAD 2000i\scans\sc.bmp
 10
1285.0
 20
1897.0
 11
0.0423334177814049
 21
0.0423334177814049
280
     1
281
     2
  0
LAYOUT
  5
16E
102
{ACAD_REACTORS
330
16B
102
}
330
16B
100
AcDbPlotSettings
  1

  2
\\Bwp-cnc\HP LaserJet 6P
  4

  6

 40
0.0
 41
0.0
 42
0.0
 43
0.0
 44
0.0
 45
0.0
 46
0.0
 47
0.0
 48
0.0
 49
0.0
140
0.0
141
0.0
142
1.0
143
1.0
 70
   688
 72
     0
 73
     0
 74
     5
  7
monochrome.ctb
 75
    16
147
1.0
148
0.0
149
0.0
100
AcDbLayout
  1
Layout1
 70
     1
 71
     1
 10
0.0
 20
0.0
 11
12.0
 21
9.0
 12
0.0
 22
0.0
 32
0.0
 14
1.000000000000000E+20
 24
1.000000000000000E+20
 34
1.000000000000000E+20
 15
-1.000000000000000E+20
 25
-1.000000000000000E+20
 35
-1.000000000000000E+20
146
0.0
 13
0.0
 23
0.0
 33
0.0
 16
1.0
 26
0.0
 36
0.0
 17
0.0
 27
1.0
 37
0.0
 76
     0
330
7
331
10F
  0
LAYOUT
  5
16D
102
{ACAD_REACTORS
330
16B
102
}
330
16B
100
AcDbPlotSettings
  1

  2
PrimoPDF
  4
Letter
  6

 40
3.174999952316284
 41
3.174999952316284
 42
3.175003051757812
 43
3.17498779296875
 44
215.8999938964843
 45
279.3999938964843
 46
74.93000000000001
 47
79.50199999999999
 48
8.892647535476749
 49
4.627005824750306
140
11.23453942800977
141
9.125791406224902
142
1.0
143
1.0
 70
 11956
 72
     0
 73
     0
 74
     4
  7
monochrome.ctb
 75
    16
147
1.0
148
-225.8732474011094
149
-117.5259479486577
100
AcDbLayout
  1
Model
 70
     1
 71
     0
 10
0.0
 20
0.0
 11
12.0
 21
9.0
 12
0.0
 22
0.0
 32
0.0
 14
0.0
 24
0.0
 34
0.0
 15
0.0
 25
0.0
 35
0.0
146
0.0
 13
0.0
 23
0.0
 33
0.0
 16
1.0
 26
0.0
 36
0.0
 17
0.0
 27
1.0
 37
0.0
 76
     0
330
2
  0
MLINESTYLE
  5
1C
102
{ACAD_REACTORS
330
19
102
}
330
19
100
AcDbMlineStyle
  2
STANDARD
 70
     0
  3

 62
     0
 51
90.0
 52
90.0
 71
     2
 49
0.5
 62
   256
  6
BYLAYER
 49
-0.5
 62
   256
  6
BYLAYER
  0
ACDBPLACEHOLDER
  5
16A
102
{ACAD_REACTORS
330
169
102
}
330
169
  0
DICTIONARYVAR
  5
476
102
{ACAD_REACTORS
330
475
102
}
330
475
100
DictionaryVariables
280
     0
  1
1
  0
ENDSEC
  0
EOF
