  0
SECTION
  2
HEADER
  9
$ACADVER
  1
AC1015
  9
$ACADMAINTVER
 70
    13
  9
$DWGCODEPAGE
  3
ANSI_1252
  9
$INSBASE
 10
0.0
 20
0.0
 30
0.0
  9
$EXTMIN
 10
13.55035404762061
 20
4.009356570911847
 30
-0.0015258207003583
  9
$EXTMAX
 10
14.8952637031852
 20
9.2339285205685
 30
0.0000000349246037
  9
$LIMMIN
 10
0.0
 20
0.0
  9
$LIMMAX
 10
12.0
 20
9.0
  9
$ORTHOMODE
 70
     0
  9
$REGENMODE
 70
     1
  9
$FILLMODE
 70
     1
  9
$QTEXTMODE
 70
     0
  9
$MIRRTEXT
 70
     1
  9
$LTSCALE
 40
1.0
  9
$ATTMODE
 70
     1
  9
$TEXTSIZE
 40
0.2
  9
$TRACEWID
 40
0.05
  9
$TEXTSTYLE
  7
STANDARD
  9
$CLAYER
  8
PROFILE
  9
$CELTYPE
  6
BYLAYER
  9
$CECOLOR
 62
   256
  9
$CELTSCALE
 40
1.0
  9
$DISPSILH
 70
     0
  9
$DIMSCALE
 40
1.0
  9
$DIMASZ
 40
0.18
  9
$DIMEXO
 40
0.0625
  9
$DIMDLI
 40
0.38
  9
$DIMRND
 40
0.0
  9
$DIMDLE
 40
0.0
  9
$DIMEXE
 40
0.18
  9
$DIMTP
 40
0.0
  9
$DIMTM
 40
0.0
  9
$DIMTXT
 40
0.18
  9
$DIMCEN
 40
0.09
  9
$DIMTSZ
 40
0.0
  9
$DIMTOL
 70
     0
  9
$DIMLIM
 70
     0
  9
$DIMTIH
 70
     1
  9
$DIMTOH
 70
     1
  9
$DIMSE1
 70
     0
  9
$DIMSE2
 70
     0
  9
$DIMTAD
 70
     0
  9
$DIMZIN
 70
     0
  9
$DIMBLK
  1

  9
$DIMASO
 70
     1
  9
$DIMSHO
 70
     1
  9
$DIMPOST
  1

  9
$DIMAPOST
  1

  9
$DIMALT
 70
     0
  9
$DIMALTD
 70
     2
  9
$DIMALTF
 40
25.4
  9
$DIMLFAC
 40
1.0
  9
$DIMTOFL
 70
     0
  9
$DIMTVP
 40
0.0
  9
$DIMTIX
 70
     0
  9
$DIMSOXD
 70
     0
  9
$DIMSAH
 70
     0
  9
$DIMBLK1
  1

  9
$DIMBLK2
  1

  9
$DIMSTYLE
  2
STANDARD_WS
  9
$DIMCLRD
 70
     0
  9
$DIMCLRE
 70
     0
  9
$DIMCLRT
 70
     0
  9
$DIMTFAC
 40
1.0
  9
$DIMGAP
 40
0.09
  9
$DIMJUST
 70
     0
  9
$DIMSD1
 70
     0
  9
$DIMSD2
 70
     0
  9
$DIMTOLJ
 70
     1
  9
$DIMTZIN
 70
     0
  9
$DIMALTZ
 70
     0
  9
$DIMALTTZ
 70
     0
  9
$DIMUPT
 70
     0
  9
$DIMDEC
 70
     4
  9
$DIMTDEC
 70
     4
  9
$DIMALTU
 70
     2
  9
$DIMALTTD
 70
     2
  9
$DIMTXSTY
  7
STANDARD
  9
$DIMAUNIT
 70
     0
  9
$DIMADEC
 70
     3
  9
$DIMALTRND
 40
0.0
  9
$DIMAZIN
 70
     0
  9
$DIMDSEP
 70
    46
  9
$DIMATFIT
 70
     3
  9
$DIMFRAC
 70
     0
  9
$DIMLDRBLK
  1

  9
$DIMLUNIT
 70
     2
  9
$DIMLWD
 70
    -2
  9
$DIMLWE
 70
    -2
  9
$DIMTMOVE
 70
     0
  9
$LUNITS
 70
     2
  9
$LUPREC
 70
     4
  9
$SKETCHINC
 40
0.1
  9
$FILLETRAD
 40
0.0
  9
$AUNITS
 70
     0
  9
$AUPREC
 70
     4
  9
$MENU
  1
.
  9
$ELEVATION
 40
0.0
  9
$PELEVATION
 40
0.0
  9
$THICKNESS
 40
0.0
  9
$LIMCHECK
 70
     0
  9
$CHAMFERA
 40
0.5
  9
$CHAMFERB
 40
0.5
  9
$CHAMFERC
 40
1.0
  9
$CHAMFERD
 40
0.0
  9
$SKPOLY
 70
     1
  9
$TDCREATE
 40
2451257.516379630
  9
$TDUCREATE
 40
2451257.724712962
  9
$TDUPDATE
 40
2454930.572805335
  9
$TDUUPDATE
 40
2454930.781138668
  9
$TDINDWG
 40
5.0499423380
  9
$TDUSRTIMER
 40
5.0499423380
  9
$USRTIMER
 70
     1
  9
$ANGBASE
 50
0.0
  9
$ANGDIR
 70
     0
  9
$PDMODE
 70
     0
  9
$PDSIZE
 40
0.0
  9
$PLINEWID
 40
0.0
  9
$SPLFRAME
 70
     0
  9
$SPLINETYPE
 70
     6
  9
$SPLINESEGS
 70
     8
  9
$HANDSEED
  5
948
  9
$SURFTAB1
 70
     6
  9
$SURFTAB2
 70
     6
  9
$SURFTYPE
 70
     6
  9
$SURFU
 70
     6
  9
$SURFV
 70
     6
  9
$UCSBASE
  2

  9
$UCSNAME
  2

  9
$UCSORG
 10
0.0
 20
0.0
 30
0.0
  9
$UCSXDIR
 10
1.0
 20
0.0
 30
0.0
  9
$UCSYDIR
 10
0.0
 20
1.0
 30
0.0
  9
$UCSORTHOREF
  2

  9
$UCSORTHOVIEW
 70
     0
  9
$UCSORGTOP
 10
0.0
 20
0.0
 30
0.0
  9
$UCSORGBOTTOM
 10
0.0
 20
0.0
 30
0.0
  9
$UCSORGLEFT
 10
0.0
 20
0.0
 30
0.0
  9
$UCSORGRIGHT
 10
0.0
 20
0.0
 30
0.0
  9
$UCSORGFRONT
 10
0.0
 20
0.0
 30
0.0
  9
$UCSORGBACK
 10
0.0
 20
0.0
 30
0.0
  9
$PUCSBASE
  2

  9
$PUCSNAME
  2

  9
$PUCSORG
 10
0.0
 20
0.0
 30
0.0
  9
$PUCSXDIR
 10
1.0
 20
0.0
 30
0.0
  9
$PUCSYDIR
 10
0.0
 20
1.0
 30
0.0
  9
$PUCSORTHOREF
  2

  9
$PUCSORTHOVIEW
 70
     0
  9
$PUCSORGTOP
 10
0.0
 20
0.0
 30
0.0
  9
$PUCSORGBOTTOM
 10
0.0
 20
0.0
 30
0.0
  9
$PUCSORGLEFT
 10
0.0
 20
0.0
 30
0.0
  9
$PUCSORGRIGHT
 10
0.0
 20
0.0
 30
0.0
  9
$PUCSORGFRONT
 10
0.0
 20
0.0
 30
0.0
  9
$PUCSORGBACK
 10
0.0
 20
0.0
 30
0.0
  9
$USERI1
 70
     0
  9
$USERI2
 70
     0
  9
$USERI3
 70
     0
  9
$USERI4
 70
     0
  9
$USERI5
 70
     0
  9
$USERR1
 40
0.0
  9
$USERR2
 40
0.0
  9
$USERR3
 40
0.0
  9
$USERR4
 40
0.0
  9
$USERR5
 40
0.0
  9
$WORLDVIEW
 70
     1
  9
$SHADEDGE
 70
     3
  9
$SHADEDIF
 70
    70
  9
$TILEMODE
 70
     1
  9
$MAXACTVP
 70
    48
  9
$PINSBASE
 10
0.0
 20
0.0
 30
0.0
  9
$PLIMCHECK
 70
     0
  9
$PEXTMIN
 10
1.000000000000000E+20
 20
1.000000000000000E+20
 30
1.000000000000000E+20
  9
$PEXTMAX
 10
-1.000000000000000E+20
 20
-1.000000000000000E+20
 30
-1.000000000000000E+20
  9
$PLIMMIN
 10
0.0
 20
0.0
  9
$PLIMMAX
 10
12.0
 20
9.0
  9
$UNITMODE
 70
     0
  9
$VISRETAIN
 70
     0
  9
$PLINEGEN
 70
     0
  9
$PSLTSCALE
 70
     1
  9
$TREEDEPTH
 70
  3020
  9
$CMLSTYLE
  2
STANDARD
  9
$CMLJUST
 70
     0
  9
$CMLSCALE
 40
1.0
  9
$PROXYGRAPHICS
 70
     1
  9
$MEASUREMENT
 70
     0
  9
$CELWEIGHT
370
    -1
  9
$ENDCAPS
280
     0
  9
$JOINSTYLE
280
     0
  9
$LWDISPLAY
290
     0
  9
$INSUNITS
 70
     0
  9
$HYPERLINKBASE
  1

  9
$STYLESHEET
  1
monochrome.ctb
  9
$XEDIT
290
     1
  9
$CEPSNTYPE
380
     0
  9
$PSTYLEMODE
290
     1
  9
$FINGERPRINTGUID
  2
{89108230-6C88-44B9-880F-278BAA3B4DED}
  9
$VERSIONGUID
  2
{8C0D490E-C9B0-4D4D-BF18-62DD6EA2B399}
  9
$EXTNAMES
290
     1
  9
$PSVPSCALE
 40
0.0
  9
$OLESTARTUP
290
     0
  0
ENDSEC
  0
SECTION
  2
CLASSES
  0
CLASS
  1
DICTIONARYVAR
  2
AcDbDictionaryVar
  3
AutoCAD 2000
 90
        0
280
     0
281
     0
  0
CLASS
  1
ACDBDICTIONARYWDFLT
  2
AcDbDictionaryWithDefault
  3
AutoCAD 2000
 90
        0
280
     0
281
     0
  0
CLASS
  1
ACDBPLACEHOLDER
  2
AcDbPlaceHolder
  3
AutoCAD 2000
 90
        0
280
     0
281
     0
  0
CLASS
  1
LAYOUT
  2
AcDbLayout
  3
AutoCAD 2000
 90
        0
280
     0
281
     0
  0
CLASS
  1
RASTERVARIABLES
  2
AcDbRasterVariables
  3
ISM
 90
        0
280
     0
281
     0
  0
CLASS
  1
IMAGEDEF
  2
AcDbRasterImageDef
  3
ISM
 90
        0
280
     0
281
     0
  0
CLASS
  1
IMAGEDEF_REACTOR
  2
AcDbRasterImageDefReactor
  3
ISM
 90
    32769
280
     0
281
     0
  0
CLASS
  1
IMAGE
  2
AcDbRasterImage
  3
ISM
 90
    32895
280
     0
281
     1
  0
ENDSEC
  0
SECTION
  2
TABLES
  0
TABLE
  2
VPORT
  5
12
330
0
100
AcDbSymbolTable
 70
     4
  0
VPORT
  5
947
330
12
100
AcDbSymbolTableRecord
100
AcDbViewportTableRecord
  2
*Active
 70
     0
 10
0.0
 20
0.0
 11
1.0
 21
1.0
 12
15.41339525279018
 22
6.549847760899394
 13
0.0
 23
0.0
 14
0.5
 24
0.5
 15
0.5
 25
0.5
 16
0.0
 26
0.0
 36
1.0
 17
0.0
 27
0.0
 37
0.0
 40
5.814408164176501
 41
2.05015197568389
 42
50.0
 43
0.0
 44
0.0
 50
0.0
 51
0.0
 71
     0
 72
   100
 73
     1
 74
     1
 75
     0
 76
     0
 77
     0
 78
     0
281
     0
 65
     1
110
0.0
120
0.0
130
0.0
111
1.0
121
0.0
131
0.0
112
0.0
122
1.0
132
0.0
 79
     0
146
0.0
  0
ENDTAB
  0
TABLE
  2
LTYPE
  5
D
330
0
100
AcDbSymbolTable
 70
     1
  0
LTYPE
  5
E
330
D
100
AcDbSymbolTableRecord
100
AcDbLinetypeTableRecord
  2
BYBLOCK
 70
     0
  3

 72
    65
 73
     0
 40
0.0
  0
LTYPE
  5
F
330
D
100
AcDbSymbolTableRecord
100
AcDbLinetypeTableRecord
  2
BYLAYER
 70
     0
  3

 72
    65
 73
     0
 40
0.0
  0
LTYPE
  5
5
330
D
100
AcDbSymbolTableRecord
100
AcDbLinetypeTableRecord
  2
CONTINUOUS
 70
     0
  3
Solid line
 72
    65
 73
     0
 40
0.0
  0
ENDTAB
  0
TABLE
  2
LAYER
  5
A
330
0
100
AcDbSymbolTable
 70
     6
  0
LAYER
  5
4
330
A
100
AcDbSymbolTableRecord
100
AcDbLayerTableRecord
  2
0
 70
     0
 62
     7
  6
CONTINUOUS
370
    -3
390
16A
  0
LAYER
  5
1F
330
A
100
AcDbSymbolTableRecord
100
AcDbLayerTableRecord
  2
PROFILE
 70
     0
 62
     3
  6
CONTINUOUS
370
    -3
390
16A
  0
LAYER
  5
1B
330
A
100
AcDbSymbolTableRecord
100
AcDbLayerTableRecord
  2
DEFPOINTS
 70
     0
 62
     7
  6
CONTINUOUS
290
     0
370
    -3
390
16A
  0
LAYER
  5
27
330
A
100
AcDbSymbolTableRecord
100
AcDbLayerTableRecord
  2
TEXT
 70
     0
 62
     5
  6
CONTINUOUS
370
    -3
390
16A
  0
LAYER
  5
28
330
A
100
AcDbSymbolTableRecord
100
AcDbLayerTableRecord
  2
DIMENSION
 70
     0
 62
     1
  6
CONTINUOUS
370
    -3
390
16A
  0
LAYER
  5
750
330
A
100
AcDbSymbolTableRecord
100
AcDbLayerTableRecord
  2
ALL
 70
     0
 62
     7
  6
CONTINUOUS
370
    -3
390
16A
  0
ENDTAB
  0
TABLE
  2
STYLE
  5
B
330
0
100
AcDbSymbolTable
 70
     3
  0
STYLE
  5
C
330
B
100
AcDbSymbolTableRecord
100
AcDbTextStyleTableRecord
  2
STANDARD
 70
     0
 40
0.0
 41
1.0
 50
0.0
 71
     0
 42
0.2
  3
txt
  4

  0
STYLE
  5
751
330
B
100
AcDbSymbolTableRecord
100
AcDbTextStyleTableRecord
  2
PANROMAN
 70
     0
 40
0.25
 41
1.25
 50
10.0
 71
     0
 42
0.25
  3
par_____.pfb
  4

  0
STYLE
  5
752
330
B
100
AcDbSymbolTableRecord
100
AcDbTextStyleTableRecord
  2
TEST
 70
     0
 40
0.0
 41
1.0
 50
0.0
 71
     0
 42
0.25
  3
ROMANC.SHX
  4

  0
ENDTAB
  0
TABLE
  2
VIEW
  5
10
330
0
100
AcDbSymbolTable
 70
     0
  0
ENDTAB
  0
TABLE
  2
UCS
  5
11
330
0
100
AcDbSymbolTable
 70
     0
  0
ENDTAB
  0
TABLE
  2
APPID
  5
14
330
0
100
AcDbSymbolTable
 70
     2
  0
APPID
  5
15
330
14
100
AcDbSymbolTableRecord
100
AcDbRegAppTableRecord
  2
ACAD
 70
     0
  0
APPID
  5
171
330
14
100
AcDbSymbolTableRecord
100
AcDbRegAppTableRecord
  2
NCPOLARIS_BASE
 70
     0
  0
ENDTAB
  0
TABLE
  2
DIMSTYLE
  5
16
330
0
100
AcDbSymbolTable
 70
     2
100
AcDbDimStyleTable
 71
     1
340
1D
  0
DIMSTYLE
105
1D
330
16
100
AcDbSymbolTableRecord
100
AcDbDimStyleTableRecord
  2
STANDARD_WS
 70
     0
179
     3
340
C
  0
DIMSTYLE
105
39
330
16
100
AcDbSymbolTableRecord
100
AcDbDimStyleTableRecord
  2
STANDARD
 70
     0
340
C
  0
ENDTAB
  0
TABLE
  2
BLOCK_RECORD
  5
1
330
0
100
AcDbSymbolTable
 70
     5
  0
BLOCK_RECORD
  5
2
330
1
100
AcDbSymbolTableRecord
100
AcDbBlockTableRecord
  2
*MODEL_SPACE
340
16D
  0
BLOCK_RECORD
  5
7
330
1
100
AcDbSymbolTableRecord
100
AcDbBlockTableRecord
  2
*PAPER_SPACE
340
16E
  0
BLOCK_RECORD
  5
3A
330
1
100
AcDbSymbolTableRecord
100
AcDbBlockTableRecord
  2
F
340
0
  0
BLOCK_RECORD
  5
8E
330
1
100
AcDbSymbolTableRecord
100
AcDbBlockTableRecord
  2
D
340
0
  0
BLOCK_RECORD
  5
AC
330
1
100
AcDbSymbolTableRecord
100
AcDbBlockTableRecord
  2
CCCROWN
340
0
  0
BLOCK_RECORD
  5
5B6
330
1
100
AcDbSymbolTableRecord
100
AcDbBlockTableRecord
  2
track
340
0
  0
ENDTAB
  0
ENDSEC
  0
SECTION
  2
BLOCKS
  0
BLOCK
  5
3
330
2
100
AcDbEntity
  8
0
100
AcDbBlockBegin
  2
*MODEL_SPACE
 70
     0
 10
0.0
 20
0.0
 30
0.0
  3
*MODEL_SPACE
  1

  0
ENDBLK
  5
6
330
2
100
AcDbEntity
  8
0
100
AcDbBlockEnd
  0
BLOCK
  5
8
330
7
100
AcDbEntity
 67
     1
  8
0
100
AcDbBlockBegin
  2
*PAPER_SPACE
 70
     0
 10
0.0
 20
0.0
 30
0.0
  3
*PAPER_SPACE
  1

  0
ENDBLK
  5
9
330
7
100
AcDbEntity
 67
     1
  8
0
100
AcDbBlockEnd
  0
BLOCK
  5
46
330
3A
100
AcDbEntity
  8
0
100
AcDbBlockBegin
  2
F
 70
     0
 10
0.0
 20
0.0
 30
0.0
  3
F
  1

  0
CIRCLE
  5
3B
330
3A
100
AcDbEntity
  8
0
 62
     7
100
AcDbCircle
 10
0.0410665214247617
 20
-0.016701615976765
 30
0.0
 40
0.0183435
  0
CIRCLE
  5
3C
330
3A
100
AcDbEntity
  8
0
 62
     7
100
AcDbCircle
 10
0.0068044214247617
 20
-0.000720415976765
 30
0.0
 40
0.0194689
  0
CIRCLE
  5
3D
330
3A
100
AcDbEntity
  8
0
 62
     7
100
AcDbCircle
 10
0.0369728214247617
 20
-0.013878215976765
 30
0.0
 40
0.0139466
  0
CIRCLE
  5
3E
330
3A
100
AcDbEntity
  8
0
 62
     7
100
AcDbCircle
 10
0.1138706214247617
 20
0.0152964840232351
 30
0.0
 40
0.0058588
  0
LINE
  5
3F
330
3A
100
AcDbEntity
  8
0
 62
     7
100
AcDbLine
 10
0.1550692214247617
 20
-0.023509915976765
 30
0.0
 11
0.1179283214247617
 21
-0.024196615976765
 31
0.0
  0
LINE
  5
40
330
3A
100
AcDbEntity
  8
0
 62
     7
100
AcDbLine
 10
0.0092153214247617
 20
-0.029690015976765
 30
0.0
 11
0.0457186214247617
 21
-0.028454015976765
 31
0.0
  0
LINE
  5
41
330
3A
100
AcDbEntity
  8
0
 62
     7
100
AcDbLine
 10
0.0088965214247617
 20
-0.020076515976765
 30
0.0
 11
0.0092153214247617
 21
-0.029690015976765
 31
0.0
  0
LINE
  5
42
330
3A
100
AcDbEntity
  8
0
 62
     7
100
AcDbLine
 10
0.0353574214247617
 20
-0.000025415976765
 30
0.0
 11
0.0355168214247617
 21
0.009313484023235
 31
0.0
  0
LINE
  5
43
330
3A
100
AcDbEntity
  8
0
 62
     7
100
AcDbLine
 10
0.1196817214247617
 20
0.0160428840232351
 30
0.0
 11
0.1550692214247617
 21
0.0165922840232351
 31
0.0
  0
LINE
  5
44
330
3A
100
AcDbEntity
  8
0
 62
     7
100
AcDbLine
 10
0.1537940214247617
 20
-0.023235215976765
 30
0.0
 11
0.1526782214247617
 21
0.0172789840232351
 31
0.0
  0
LINE
  5
45
330
3A
100
AcDbEntity
  8
0
 62
     7
100
AcDbLine
 10
0.1142620214247617
 20
0.009450784023235
 30
0.0
 11
0.0363138214247617
 21
0.005193384023235
 31
0.0
  0
ENDBLK
  5
47
330
3A
100
AcDbEntity
  8
0
100
AcDbBlockEnd
  0
BLOCK
  5
9B
330
8E
100
AcDbEntity
  8
0
100
AcDbBlockBegin
  2
D
 70
     0
 10
0.0
 20
0.0
 30
0.0
  3
D
  1

  0
CIRCLE
  5
8F
330
8E
100
AcDbEntity
  8
0
 62
     7
100
AcDbCircle
 10
-0.1168512632442014
 20
0.0286128993414634
 30
0.0
 40
0.0184624
  0
CIRCLE
  5
90
330
8E
100
AcDbEntity
  8
0
 62
     7
100
AcDbCircle
 10
-0.1124979632442014
 20
0.0309464993414634
 30
0.0
 40
0.0254615
  0
CIRCLE
  5
91
330
8E
100
AcDbEntity
  8
0
 62
     7
100
AcDbCircle
 10
-0.1098053632442014
 20
0.0273971993414634
 30
0.0
 40
0.0219833
  0
LINE
  5
92
330
8E
100
AcDbEntity
  8
0
 62
     7
100
AcDbLine
 10
-0.1130932632442014
 20
0.0708659993414634
 30
0.0
 11
-0.1446799632442014
 21
0.0404778993414634
 31
0.0
  0
LINE
  5
93
330
8E
100
AcDbEntity
  8
0
 62
     7
100
AcDbLine
 10
-0.1297586632442014
 20
0.0418136993414634
 30
0.0
 11
-0.1400291632442014
 21
0.0504959993414634
 31
0.0
  0
LINE
  5
94
330
8E
100
AcDbEntity
  8
0
 62
     7
100
AcDbLine
 10
-0.1082487632442014
 20
0.0710328993414634
 30
0.0
 11
-0.0784060632442014
 21
0.0398100993414634
 31
0.0
  0
LINE
  5
95
330
8E
100
AcDbEntity
  8
0
 62
     7
100
AcDbLine
 10
-0.0920669632442015
 20
0.0403824993414634
 30
0.0
 11
-0.0844133632442015
 21
0.0478244993414634
 31
0.0
  0
LINE
  5
96
330
8E
100
AcDbEntity
  8
0
 62
     7
100
AcDbLine
 10
-0.0178829632442014
 20
0.0352731993414634
 30
0.0
 11
-0.0253094632442014
 21
0.0404778993414634
 31
0.0
  0
CIRCLE
  5
97
330
8E
100
AcDbEntity
  8
0
 62
     7
100
AcDbCircle
 10
-0.0019354632442014
 20
0.0279654993414634
 30
0.0
 40
0.0175421
  0
LINE
  5
98
330
8E
100
AcDbEntity
  8
0
 62
     7
100
AcDbLine
 10
-0.0253094632442014
 20
0.0404778993414634
 30
0.0
 11
-0.0074813632442014
 21
0.0643541993414634
 31
0.0
  0
LINE
  5
99
330
8E
100
AcDbEntity
  8
0
 62
     7
100
AcDbLine
 10
0.0161602367557986
 20
0.0461547993414634
 30
0.0
 11
-0.0074813632442014
 21
0.0643541993414634
 31
0.0
  0
LINE
  5
9A
330
8E
100
AcDbEntity
  8
0
 62
     7
100
AcDbLine
 10
0.0108860367557986
 20
0.0399377993414634
 30
0.0
 11
0.0161602367557986
 21
0.0461547993414634
 31
0.0
  0
ENDBLK
  5
9C
330
8E
100
AcDbEntity
  8
0
100
AcDbBlockEnd
  0
BLOCK
  5
BC
330
AC
100
AcDbEntity
  8
0
100
AcDbBlockBegin
  2
CCCROWN
 70
     0
 10
0.0
 20
0.0
 30
0.0
  3
CCCROWN
  1

  0
CIRCLE
  5
AD
330
AC
100
AcDbEntity
  8
0
 62
     7
100
AcDbCircle
 10
1.453151451829637
 20
0.6765280889605166
 30
0.0
 40
1.344812
  0
LINE
  5
AE
330
AC
100
AcDbEntity
  8
0
 62
     7
100
AcDbLine
 10
0.8618244518296375
 20
0.5174780889605167
 30
0.0
 11
0.8767584518296375
 21
-0.6765521110394835
 31
0.0
  0
LINE
  5
AF
330
AC
100
AcDbEntity
  8
0
 62
     7
100
AcDbLine
 10
0.2226365518296377
 20
0.5174780889605167
 30
0.0
 11
0.2226365518296377
 21
0.1609270889605165
 31
0.0
  0
CIRCLE
  5
B0
330
AC
100
AcDbEntity
  8
0
 62
     7
100
AcDbCircle
 10
0.0027955518296377
 20
-0.7486109110394834
 30
0.0
 40
0.6896503000000001
  0
CIRCLE
  5
B1
330
AC
100
AcDbEntity
  8
0
 62
     7
100
AcDbCircle
 10
0.4295939518296377
 20
0.0154420889605165
 30
0.0
 40
0.1281395
  0
LINE
  5
B2
330
AC
100
AcDbEntity
  8
0
 62
     7
100
AcDbLine
 10
0.2315971518296377
 20
0.1443430889605164
 30
0.0
 11
0.2584788518296377
 21
0.1388150889605166
 31
0.0
  0
LINE
  5
B3
330
AC
100
AcDbEntity
  8
0
 62
     7
100
AcDbLine
 10
0.2226365518296377
 20
0.1609270889605165
 30
0.0
 11
0.2315971518296377
 21
0.1443430889605164
 31
0.0
  0
LINE
  5
B4
330
AC
100
AcDbEntity
  8
0
 62
     7
100
AcDbLine
 10
0.2823736518296376
 20
0.1360510889605164
 30
0.0
 11
0.3480845518296377
 21
0.1305240889605166
 31
0.0
  0
LINE
  5
B5
330
AC
100
AcDbEntity
  8
0
 62
     7
100
AcDbLine
 10
0.2584788518296377
 20
0.1388150889605166
 30
0.0
 11
0.2823736518296376
 21
0.1360510889605164
 31
0.0
  0
LINE
  5
B6
330
AC
100
AcDbEntity
  8
0
 62
     7
100
AcDbLine
 10
0.3480845518296377
 20
0.1305240889605166
 30
0.0
 11
0.3510714518296377
 21
0.1167040889605164
 31
0.0
  0
LINE
  5
B7
330
AC
100
AcDbEntity
  8
0
 62
     7
100
AcDbLine
 10
0.8767584518296375
 20
-0.6765521110394835
 30
0.0
 11
0.7304024518296377
 21
-0.6793160110394835
 31
0.0
  0
LINE
  5
B8
330
AC
100
AcDbEntity
  8
0
 62
     7
100
AcDbLine
 10
0.6855994518296377
 20
-0.6572044110394835
 30
0.0
 11
0.6885863518296378
 21
-0.6378567110394835
 31
0.0
  0
LINE
  5
B9
330
AC
100
AcDbEntity
  8
0
 62
     7
100
AcDbLine
 10
0.7304024518296377
 20
-0.6793160110394835
 30
0.0
 11
0.7065074518296378
 21
-0.6737881110394835
 31
0.0
  0
LINE
  5
BA
330
AC
100
AcDbEntity
  8
0
 62
     7
100
AcDbLine
 10
0.7065074518296378
 20
-0.6737881110394835
 30
0.0
 11
0.6855994518296377
 21
-0.6572044110394835
 31
0.0
  0
LINE
  5
BB
330
AC
100
AcDbEntity
  8
0
 62
     7
100
AcDbLine
 10
0.2226365518296377
 20
0.5174780889605167
 30
0.0
 11
0.8618244518296375
 21
0.5174780889605167
 31
0.0
  0
ENDBLK
  5
BD
330
AC
100
AcDbEntity
  8
0
100
AcDbBlockEnd
  0
BLOCK
  5
5C3
330
5B6
100
AcDbEntity
  8
0
100
AcDbBlockBegin
  2
track
 70
     0
 10
0.0
 20
0.0
 30
0.0
  3
track
  1

  0
LINE
  5
5B7
330
5B6
100
AcDbEntity
  8
PROFILE
100
AcDbLine
 10
16.53207238374206
 20
4.044320932551642
 30
0.0
 11
16.53207238374207
 21
5.014320932551641
 31
0.0
  0
LINE
  5
5B8
330
5B6
100
AcDbEntity
  8
PROFILE
100
AcDbLine
 10
15.60207238374206
 20
4.044320932551642
 30
0.0
 11
15.60207238374206
 21
5.014320932551641
 31
0.0
  0
LINE
  5
5B9
330
5B6
100
AcDbEntity
  8
PROFILE
100
AcDbLine
 10
15.47707238374207
 20
3.919320932551641
 30
0.0
 11
15.47707238374206
 21
5.13932093255164
 31
0.0
  0
LINE
  5
5BA
330
5B6
100
AcDbEntity
  8
PROFILE
100
AcDbLine
 10
16.65707238374206
 20
3.919320932551642
 30
0.0
 11
16.65707238374206
 21
5.13932093255164
 31
0.0
  0
LINE
  5
5BB
330
5B6
100
AcDbEntity
  8
PROFILE
100
AcDbLine
 10
15.60207238374206
 20
4.044320932551642
 30
0.0
 11
15.81707238374206
 21
4.044320932551641
 31
0.0
  0
LINE
  5
5BC
330
5B6
100
AcDbEntity
  8
PROFILE
100
AcDbLine
 10
15.47707238374207
 20
3.919320932551641
 30
0.0
 11
15.81707238374206
 21
3.919320932551641
 31
0.0
  0
LINE
  5
5BD
330
5B6
100
AcDbEntity
  8
PROFILE
100
AcDbLine
 10
15.81707238374207
 20
3.919320932551642
 30
0.0
 11
15.81707238374206
 21
4.044320932551641
 31
0.0
  0
LINE
  5
5BE
330
5B6
100
AcDbEntity
  8
PROFILE
100
AcDbLine
 10
16.31707238374207
 20
3.919320932551641
 30
0.0
 11
16.65707238374206
 21
3.919320932551642
 31
0.0
  0
LINE
  5
5BF
330
5B6
100
AcDbEntity
  8
PROFILE
100
AcDbLine
 10
16.31707238374207
 20
3.919320932551642
 30
0.0
 11
16.31707238374206
 21
4.04432093255164
 31
0.0
  0
LINE
  5
5C0
330
5B6
100
AcDbEntity
  8
PROFILE
100
AcDbLine
 10
16.31707238374206
 20
4.04432093255164
 30
0.0
 11
16.53207238374206
 21
4.044320932551642
 31
0.0
  0
LINE
  5
5C1
330
5B6
100
AcDbEntity
  8
PROFILE
100
AcDbLine
 10
15.60207238374206
 20
5.014320932551641
 30
0.0
 11
16.53207238374207
 21
5.014320932551641
 31
0.0
  0
LINE
  5
5C2
330
5B6
100
AcDbEntity
  8
PROFILE
100
AcDbLine
 10
15.47707238374206
 20
5.13932093255164
 30
0.0
 11
16.65707238374206
 21
5.13932093255164
 31
0.0
  0
ENDBLK
  5
5C4
330
5B6
100
AcDbEntity
  8
0
100
AcDbBlockEnd
  0
ENDSEC
  0
SECTION
  2
ENTITIES
  0
TEXT
  5
892
330
2
100
AcDbEntity
  8
ALL
 62
     1
100
AcDbText
 10
13.53770454179487
 20
4.034576805909612
 30
0.0
 40
0.075
  1
13/16" X 4 9/16"
 41
1.25
  7
TEST
 72
     1
 11
14.22297239893772
 21
4.034576805909612
 31
0.0
100
AcDbText
  0
TEXT
  5
893
330
2
100
AcDbEntity
  8
ALL
 62
     1
100
AcDbText
 10
13.72841017426812
 20
4.179368230102255
 30
0.0
 40
0.125
  1
BWP-2010
 41
1.25
  7
PANROMAN
 72
     1
 11
14.22297239893772
 21
4.179368230102255
 31
0.0
100
AcDbText
  0
POLYLINE
  5
894
330
2
100
AcDbEntity
  8
ALL
 62
     3
100
AcDb2dPolyline
 66
     1
 10
0.0
 20
0.0
 30
0.0
 70
     4
 75
     6
  0
VERTEX
  5
895
330
894
100
AcDbEntity
  8
ALL
 62
     3
100
AcDbVertex
100
AcDb2dVertex
 10
14.51006533221617
 20
8.047863972756593
 30
0.0
 70
    16
  0
VERTEX
  5
896
330
894
100
AcDbEntity
  8
ALL
 62
     3
100
AcDbVertex
100
AcDb2dVertex
 10
14.51006533221617
 20
8.047863972756593
 30
0.0
 70
     8
  0
VERTEX
  5
897
330
894
100
AcDbEntity
  8
ALL
 62
     3
100
AcDbVertex
100
AcDb2dVertex
 10
14.52264281006596
 20
8.031444103870702
 30
0.0
 70
     8
  0
VERTEX
  5
898
330
894
100
AcDbEntity
  8
ALL
 62
     3
100
AcDbVertex
100
AcDb2dVertex
 10
14.53296836010374
 20
8.017208915574093
 30
0.0
 70
     8
  0
VERTEX
  5
899
330
894
100
AcDbEntity
  8
ALL
 62
     3
100
AcDbVertex
100
AcDb2dVertex
 10
14.541357865749
 20
8.00476048642607
 30
0.0
 70
     8
  0
VERTEX
  5
89A
330
894
100
AcDbEntity
  8
ALL
 62
     3
100
AcDbVertex
100
AcDb2dVertex
 10
14.54812721042127
 20
7.993700894985925
 30
0.0
 70
     8
  0
VERTEX
  5
89B
330
894
100
AcDbEntity
  8
ALL
 62
     3
100
AcDbVertex
100
AcDb2dVertex
 10
14.55359227754004
 20
7.983632219812951
 30
0.0
 70
     8
  0
VERTEX
  5
89C
330
894
100
AcDbEntity
  8
ALL
 62
     3
100
AcDbVertex
100
AcDb2dVertex
 10
14.55806895052486
 20
7.974156539466425
 30
0.0
 70
     8
  0
VERTEX
  5
89D
330
894
100
AcDbEntity
  8
ALL
 62
     3
100
AcDbVertex
100
AcDb2dVertex
 10
14.5618731127952
 20
7.964875932505639
 30
0.0
 70
     8
  0
VERTEX
  5
89E
330
894
100
AcDbEntity
  8
ALL
 62
     3
100
AcDbVertex
100
AcDb2dVertex
 10
14.56532064777061
 20
7.955392477489899
 30
0.0
 70
     8
  0
VERTEX
  5
89F
330
894
100
AcDbEntity
  8
ALL
 62
     3
100
AcDbVertex
100
AcDb2dVertex
 10
14.56867335039182
 20
7.945382218500801
 30
0.0
 70
     8
  0
VERTEX
  5
8A0
330
894
100
AcDbEntity
  8
ALL
 62
     3
100
AcDbVertex
100
AcDb2dVertex
 10
14.57197666168459
 20
7.934817061709301
 30
0.0
 70
     8
  0
VERTEX
  5
8A1
330
894
100
AcDbEntity
  8
ALL
 62
     3
100
AcDbVertex
100
AcDb2dVertex
 10
14.57522193419591
 20
7.923742878808686
 30
0.0
 70
     8
  0
VERTEX
  5
8A2
330
894
100
AcDbEntity
  8
ALL
 62
     3
100
AcDbVertex
100
AcDb2dVertex
 10
14.57840052047284
 20
7.912205541492204
 30
0.0
 70
     8
  0
VERTEX
  5
8A3
330
894
100
AcDbEntity
  8
ALL
 62
     3
100
AcDbVertex
100
AcDb2dVertex
 10
14.5815037730623
 20
7.900250921453126
 30
0.0
 70
     8
  0
VERTEX
  5
8A4
330
894
100
AcDbEntity
  8
ALL
 62
     3
100
AcDbVertex
100
AcDb2dVertex
 10
14.58452304451136
 20
7.887924890384757
 30
0.0
 70
     8
  0
VERTEX
  5
8A5
330
894
100
AcDbEntity
  8
ALL
 62
     3
100
AcDbVertex
100
AcDb2dVertex
 10
14.58744968736697
 20
7.875273319980342
 30
0.0
 70
     8
  0
VERTEX
  5
8A6
330
894
100
AcDbEntity
  8
ALL
 62
     3
100
AcDbVertex
100
AcDb2dVertex
 10
14.59027505417619
 20
7.862342081933141
 30
0.0
 70
     8
  0
VERTEX
  5
8A7
330
894
100
AcDbEntity
  8
ALL
 62
     3
100
AcDbVertex
100
AcDb2dVertex
 10
14.59298417522347
 20
7.849183406615699
 30
0.0
 70
     8
  0
VERTEX
  5
8A8
330
894
100
AcDbEntity
  8
ALL
 62
     3
100
AcDbVertex
100
AcDb2dVertex
 10
14.59553679174333
 20
7.83587495911748
 30
0.0
 70
     8
  0
VERTEX
  5
8A9
330
894
100
AcDbEntity
  8
ALL
 62
     3
100
AcDbVertex
100
AcDb2dVertex
 10
14.59788632270774
 20
7.822500763207179
 30
0.0
 70
     8
  0
VERTEX
  5
8AA
330
894
100
AcDbEntity
  8
ALL
 62
     3
100
AcDbVertex
100
AcDb2dVertex
 10
14.59998618708874
 20
7.809144842653543
 30
0.0
 70
     8
  0
VERTEX
  5
8AB
330
894
100
AcDbEntity
  8
ALL
 62
     3
100
AcDbVertex
100
AcDb2dVertex
 10
14.60178980385827
 20
7.795891221225266
 30
0.0
 70
     8
  0
VERTEX
  5
8AC
330
894
100
AcDbEntity
  8
ALL
 62
     3
100
AcDbVertex
100
AcDb2dVertex
 10
14.60325059198833
 20
7.782823922691084
 30
0.0
 70
     8
  0
VERTEX
  5
8AD
330
894
100
AcDbEntity
  8
ALL
 62
     3
100
AcDbVertex
100
AcDb2dVertex
 10
14.60432197045093
 20
7.77002697081969
 30
0.0
 70
     8
  0
VERTEX
  5
8AE
330
894
100
AcDbEntity
  8
ALL
 62
     3
100
AcDbVertex
100
AcDb2dVertex
 10
14.60495735821805
 20
7.757584389379806
 30
0.0
 70
     8
  0
VERTEX
  5
8AF
330
894
100
AcDbEntity
  8
ALL
 62
     3
100
AcDbVertex
100
AcDb2dVertex
 10
14.60513025713899
 20
7.745553481753992
 30
0.0
 70
     8
  0
VERTEX
  5
8B0
330
894
100
AcDbEntity
  8
ALL
 62
     3
100
AcDbVertex
100
AcDb2dVertex
 10
14.60489450057237
 20
7.733884669780101
 30
0.0
 70
     8
  0
VERTEX
  5
8B1
330
894
100
AcDbEntity
  8
ALL
 62
     3
100
AcDbVertex
100
AcDb2dVertex
 10
14.60432400475408
 20
7.722501654909811
 30
0.0
 70
     8
  0
VERTEX
  5
8B2
330
894
100
AcDbEntity
  8
ALL
 62
     3
100
AcDbVertex
100
AcDb2dVertex
 10
14.60349268592005
 20
7.711328138594799
 30
0.0
 70
     8
  0
VERTEX
  5
8B3
330
894
100
AcDbEntity
  8
ALL
 62
     3
100
AcDbVertex
100
AcDb2dVertex
 10
14.60247446030614
 20
7.700287822286787
 30
0.0
 70
     8
  0
VERTEX
  5
8B4
330
894
100
AcDbEntity
  8
ALL
 62
     3
100
AcDbVertex
100
AcDb2dVertex
 10
14.60134324414829
 20
7.689304407437438
 30
0.0
 70
     8
  0
VERTEX
  5
8B5
330
894
100
AcDbEntity
  8
ALL
 62
     3
100
AcDbVertex
100
AcDb2dVertex
 10
14.60017295368239
 20
7.678301595498473
 30
0.0
 70
     8
  0
VERTEX
  5
8B6
330
894
100
AcDbEntity
  8
ALL
 62
     3
100
AcDbVertex
100
AcDb2dVertex
 10
14.59903750514438
 20
7.66720308792154
 30
0.0
 70
     8
  0
VERTEX
  5
8B7
330
894
100
AcDbEntity
  8
ALL
 62
     3
100
AcDbVertex
100
AcDb2dVertex
 10
14.59798420830301
 20
7.655952171868012
 30
0.0
 70
     8
  0
VERTEX
  5
8B8
330
894
100
AcDbEntity
  8
ALL
 62
     3
100
AcDbVertex
100
AcDb2dVertex
 10
14.59695394705848
 20
7.644570477337953
 30
0.0
 70
     8
  0
VERTEX
  5
8B9
330
894
100
AcDbEntity
  8
ALL
 62
     3
100
AcDbVertex
100
AcDb2dVertex
 10
14.59586099884384
 20
7.633099220041021
 30
0.0
 70
     8
  0
VERTEX
  5
8BA
330
894
100
AcDbEntity
  8
ALL
 62
     3
100
AcDbVertex
100
AcDb2dVertex
 10
14.59461964109211
 20
7.621579615686943
 30
0.0
 70
     8
  0
VERTEX
  5
8BB
330
894
100
AcDbEntity
  8
ALL
 62
     3
100
AcDbVertex
100
AcDb2dVertex
 10
14.59314415123639
 20
7.610052879985449
 30
0.0
 70
     8
  0
VERTEX
  5
8BC
330
894
100
AcDbEntity
  8
ALL
 62
     3
100
AcDbVertex
100
AcDb2dVertex
 10
14.59134880670972
 20
7.598560228646224
 30
0.0
 70
     8
  0
VERTEX
  5
8BD
330
894
100
AcDbEntity
  8
ALL
 62
     3
100
AcDbVertex
100
AcDb2dVertex
 10
14.58914788494515
 20
7.587142877378983
 30
0.0
 70
     8
  0
VERTEX
  5
8BE
330
894
100
AcDbEntity
  8
ALL
 62
     3
100
AcDbVertex
100
AcDb2dVertex
 10
14.58645566337573
 20
7.575842041893412
 30
0.0
 70
     8
  0
VERTEX
  5
8BF
330
894
100
AcDbEntity
  8
ALL
 62
     3
100
AcDbVertex
100
AcDb2dVertex
 10
14.58321860017977
 20
7.564695593933226
 30
0.0
 70
     8
  0
VERTEX
  5
8C0
330
894
100
AcDbEntity
  8
ALL
 62
     3
100
AcDbVertex
100
AcDb2dVertex
 10
14.57951187651664
 20
7.553728029378039
 30
0.0
 70
     8
  0
VERTEX
  5
8C1
330
894
100
AcDbEntity
  8
ALL
 62
     3
100
AcDbVertex
100
AcDb2dVertex
 10
14.5754428542909
 20
7.542960500141493
 30
0.0
 70
     8
  0
VERTEX
  5
8C2
330
894
100
AcDbEntity
  8
ALL
 62
     3
100
AcDbVertex
100
AcDb2dVertex
 10
14.57111889540723
 20
7.532414158137203
 30
0.0
 70
     8
  0
VERTEX
  5
8C3
330
894
100
AcDbEntity
  8
ALL
 62
     3
100
AcDbVertex
100
AcDb2dVertex
 10
14.56664736177017
 20
7.522110155278799
 30
0.0
 70
     8
  0
VERTEX
  5
8C4
330
894
100
AcDbEntity
  8
ALL
 62
     3
100
AcDbVertex
100
AcDb2dVertex
 10
14.56213561528439
 20
7.512069643479879
 30
0.0
 70
     8
  0
VERTEX
  5
8C5
330
894
100
AcDbEntity
  8
ALL
 62
     3
100
AcDbVertex
100
AcDb2dVertex
 10
14.55769101785445
 20
7.502313774654087
 30
0.0
 70
     8
  0
VERTEX
  5
8C6
330
894
100
AcDbEntity
  8
ALL
 62
     3
100
AcDbVertex
100
AcDb2dVertex
 10
14.55342093138499
 20
7.492863700715037
 30
0.0
 70
     8
  0
VERTEX
  5
8C7
330
894
100
AcDbEntity
  8
ALL
 62
     3
100
AcDbVertex
100
AcDb2dVertex
 10
14.54940599739443
 20
7.483720490699031
 30
0.0
 70
     8
  0
VERTEX
  5
8C8
330
894
100
AcDbEntity
  8
ALL
 62
     3
100
AcDbVertex
100
AcDb2dVertex
 10
14.54561997585653
 20
7.474804882133089
 30
0.0
 70
     8
  0
VERTEX
  5
8C9
330
894
100
AcDbEntity
  8
ALL
 62
     3
100
AcDbVertex
100
AcDb2dVertex
 10
14.54200990635887
 20
7.466017529666917
 30
0.0
 70
     8
  0
VERTEX
  5
8CA
330
894
100
AcDbEntity
  8
ALL
 62
     3
100
AcDbVertex
100
AcDb2dVertex
 10
14.53852282848904
 20
7.457259087950223
 30
0.0
 70
     8
  0
VERTEX
  5
8CB
330
894
100
AcDbEntity
  8
ALL
 62
     3
100
AcDbVertex
100
AcDb2dVertex
 10
14.53510578183462
 20
7.448430211632715
 30
0.0
 70
     8
  0
VERTEX
  5
8CC
330
894
100
AcDbEntity
  8
ALL
 62
     3
100
AcDbVertex
100
AcDb2dVertex
 10
14.53170580598318
 20
7.439431555364098
 30
0.0
 70
     8
  0
VERTEX
  5
8CD
330
894
100
AcDbEntity
  8
ALL
 62
     3
100
AcDbVertex
100
AcDb2dVertex
 10
14.52826994052232
 20
7.430163773794053
 30
0.0
 70
     8
  0
VERTEX
  5
8CE
330
894
100
AcDbEntity
  8
ALL
 62
     3
100
AcDbVertex
100
AcDb2dVertex
 10
14.52474522503958
 20
7.420527521572314
 30
0.0
 70
     8
  0
VERTEX
  5
8CF
330
894
100
AcDbEntity
  8
ALL
 62
     3
100
AcDbVertex
100
AcDb2dVertex
 10
14.52109112587796
 20
7.410448129444393
 30
0.0
 70
     8
  0
VERTEX
  5
8D0
330
894
100
AcDbEntity
  8
ALL
 62
     3
100
AcDbVertex
100
AcDb2dVertex
 10
14.51731681640168
 20
7.39994963253898
 30
0.0
 70
     8
  0
VERTEX
  5
8D1
330
894
100
AcDbEntity
  8
ALL
 62
     3
100
AcDbVertex
100
AcDb2dVertex
 10
14.51344389673041
 20
7.389080742080626
 30
0.0
 70
     8
  0
VERTEX
  5
8D2
330
894
100
AcDbEntity
  8
ALL
 62
     3
100
AcDbVertex
100
AcDb2dVertex
 10
14.50949396698379
 20
7.37789016929388
 30
0.0
 70
     8
  0
VERTEX
  5
8D3
330
894
100
AcDbEntity
  8
ALL
 62
     3
100
AcDbVertex
100
AcDb2dVertex
 10
14.50548862728143
 20
7.366426625403239
 30
0.0
 70
     8
  0
VERTEX
  5
8D4
330
894
100
AcDbEntity
  8
ALL
 62
     3
100
AcDbVertex
100
AcDb2dVertex
 10
14.50144947774296
 20
7.354738821633223
 30
0.0
 70
     8
  0
VERTEX
  5
8D5
330
894
100
AcDbEntity
  8
ALL
 62
     3
100
AcDbVertex
100
AcDb2dVertex
 10
14.49739811848808
 20
7.342875469208397
 30
0.0
 70
     8
  0
VERTEX
  5
8D6
330
894
100
AcDbEntity
  8
ALL
 62
     3
100
AcDbVertex
100
AcDb2dVertex
 10
14.49335614963637
 20
7.330885279353271
 30
0.0
 70
     8
  0
VERTEX
  5
8D7
330
894
100
AcDbEntity
  8
ALL
 62
     3
100
AcDbVertex
100
AcDb2dVertex
 10
14.48933927374454
 20
7.318801372787181
 30
0.0
 70
     8
  0
VERTEX
  5
8D8
330
894
100
AcDbEntity
  8
ALL
 62
     3
100
AcDbVertex
100
AcDb2dVertex
 10
14.48533960311751
 20
7.306594508208707
 30
0.0
 70
     8
  0
VERTEX
  5
8D9
330
894
100
AcDbEntity
  8
ALL
 62
     3
100
AcDbVertex
100
AcDb2dVertex
 10
14.48134335249724
 20
7.294219853811274
 30
0.0
 70
     8
  0
VERTEX
  5
8DA
330
894
100
AcDbEntity
  8
ALL
 62
     3
100
AcDbVertex
100
AcDb2dVertex
 10
14.47733673662568
 20
7.281632577788261
 30
0.0
 70
     8
  0
VERTEX
  5
8DB
330
894
100
AcDbEntity
  8
ALL
 62
     3
100
AcDbVertex
100
AcDb2dVertex
 10
14.47330597024485
 20
7.268787848333079
 30
0.0
 70
     8
  0
VERTEX
  5
8DC
330
894
100
AcDbEntity
  8
ALL
 62
     3
100
AcDbVertex
100
AcDb2dVertex
 10
14.46923726809668
 20
7.255640833639109
 30
0.0
 70
     8
  0
VERTEX
  5
8DD
330
894
100
AcDbEntity
  8
ALL
 62
     3
100
AcDbVertex
100
AcDb2dVertex
 10
14.46511684492318
 20
7.242146701899788
 30
0.0
 70
     8
  0
VERTEX
  5
8DE
330
894
100
AcDbEntity
  8
ALL
 62
     3
100
AcDbVertex
100
AcDb2dVertex
 10
14.46093091546625
 20
7.228260621308468
 30
0.0
 70
     8
  0
VERTEX
  5
8DF
330
894
100
AcDbEntity
  8
ALL
 62
     3
100
AcDbVertex
100
AcDb2dVertex
 10
14.4566739119842
 20
7.213968626187995
 30
0.0
 70
     8
  0
VERTEX
  5
8E0
330
894
100
AcDbEntity
  8
ALL
 62
     3
100
AcDbVertex
100
AcDb2dVertex
 10
14.45237313680021
 20
7.199380215378813
 30
0.0
 70
     8
  0
VERTEX
  5
8E1
330
894
100
AcDbEntity
  8
ALL
 62
     3
100
AcDbVertex
100
AcDb2dVertex
 10
14.44806410975376
 20
7.184635753850773
 30
0.0
 70
     8
  0
VERTEX
  5
8E2
330
894
100
AcDbEntity
  8
ALL
 62
     3
100
AcDbVertex
100
AcDb2dVertex
 10
14.44378235068429
 20
7.1698756065738
 30
0.0
 70
     8
  0
VERTEX
  5
8E3
330
894
100
AcDbEntity
  8
ALL
 62
     3
100
AcDbVertex
100
AcDb2dVertex
 10
14.43956337943128
 20
7.155240138517701
 30
0.0
 70
     8
  0
VERTEX
  5
8E4
330
894
100
AcDbEntity
  8
ALL
 62
     3
100
AcDbVertex
100
AcDb2dVertex
 10
14.43544271583422
 20
7.140869714652399
 30
0.0
 70
     8
  0
VERTEX
  5
8E5
330
894
100
AcDbEntity
  8
ALL
 62
     3
100
AcDbVertex
100
AcDb2dVertex
 10
14.43145587973256
 20
7.126904699947733
 30
0.0
 70
     8
  0
VERTEX
  5
8E6
330
894
100
AcDbEntity
  8
ALL
 62
     3
100
AcDbVertex
100
AcDb2dVertex
 10
14.42763839096576
 20
7.113485459373595
 30
0.0
 70
     8
  0
VERTEX
  5
8E7
330
894
100
AcDbEntity
  8
ALL
 62
     3
100
AcDbVertex
100
AcDb2dVertex
 10
14.42401882632113
 20
7.100712383769494
 30
0.0
 70
     8
  0
VERTEX
  5
8E8
330
894
100
AcDbEntity
  8
ALL
 62
     3
100
AcDbVertex
100
AcDb2dVertex
 10
14.42059799037715
 20
7.088525967453694
 30
0.0
 70
     8
  0
VERTEX
  5
8E9
330
894
100
AcDbEntity
  8
ALL
 62
     3
100
AcDbVertex
100
AcDb2dVertex
 10
14.41736974466018
 20
7.076826730614062
 30
0.0
 70
     8
  0
VERTEX
  5
8EA
330
894
100
AcDbEntity
  8
ALL
 62
     3
100
AcDbVertex
100
AcDb2dVertex
 10
14.41432795069649
 20
7.065515193438546
 30
0.0
 70
     8
  0
VERTEX
  5
8EB
330
894
100
AcDbEntity
  8
ALL
 62
     3
100
AcDbVertex
100
AcDb2dVertex
 10
14.41146647001246
 20
7.054491876114997
 30
0.0
 70
     8
  0
VERTEX
  5
8EC
330
894
100
AcDbEntity
  8
ALL
 62
     3
100
AcDbVertex
100
AcDb2dVertex
 10
14.4087791641344
 20
7.043657298831337
 30
0.0
 70
     8
  0
VERTEX
  5
8ED
330
894
100
AcDbEntity
  8
ALL
 62
     3
100
AcDbVertex
100
AcDb2dVertex
 10
14.40625989458859
 20
7.032911981775459
 30
0.0
 70
     8
  0
VERTEX
  5
8EE
330
894
100
AcDbEntity
  8
ALL
 62
     3
100
AcDbVertex
100
AcDb2dVertex
 10
14.40390252290139
 20
7.022156445135284
 30
0.0
 70
     8
  0
VERTEX
  5
8EF
330
894
100
AcDbEntity
  8
ALL
 62
     3
100
AcDbVertex
100
AcDb2dVertex
 10
14.40169639021413
 20
7.011302277351365
 30
0.0
 70
     8
  0
VERTEX
  5
8F0
330
894
100
AcDbEntity
  8
ALL
 62
     3
100
AcDbVertex
100
AcDb2dVertex
 10
14.39961275612807
 20
7.000305339874845
 30
0.0
 70
     8
  0
VERTEX
  5
8F1
330
894
100
AcDbEntity
  8
ALL
 62
     3
100
AcDbVertex
100
AcDb2dVertex
 10
14.3976183598595
 20
6.989132562409611
 30
0.0
 70
     8
  0
VERTEX
  5
8F2
330
894
100
AcDbEntity
  8
ALL
 62
     3
100
AcDbVertex
100
AcDb2dVertex
 10
14.39567994062468
 20
6.977750874659452
 30
0.0
 70
     8
  0
VERTEX
  5
8F3
330
894
100
AcDbEntity
  8
ALL
 62
     3
100
AcDbVertex
100
AcDb2dVertex
 10
14.39376423763993
 20
6.966127206328241
 30
0.0
 70
     8
  0
VERTEX
  5
8F4
330
894
100
AcDbEntity
  8
ALL
 62
     3
100
AcDbVertex
100
AcDb2dVertex
 10
14.39183799012149
 20
6.954228487119795
 30
0.0
 70
     8
  0
VERTEX
  5
8F5
330
894
100
AcDbEntity
  8
ALL
 62
     3
100
AcDbVertex
100
AcDb2dVertex
 10
14.38986793728568
 20
6.942021646737959
 30
0.0
 70
     8
  0
VERTEX
  5
8F6
330
894
100
AcDbEntity
  8
ALL
 62
     3
100
AcDbVertex
100
AcDb2dVertex
 10
14.38782081834872
 20
6.929473614886564
 30
0.0
 70
     8
  0
VERTEX
  5
8F7
330
894
100
AcDbEntity
  8
ALL
 62
     3
100
AcDbVertex
100
AcDb2dVertex
 10
14.38567449680535
 20
6.916575350795614
 30
0.0
 70
     8
  0
VERTEX
  5
8F8
330
894
100
AcDbEntity
  8
ALL
 62
     3
100
AcDbVertex
100
AcDb2dVertex
 10
14.38345133326392
 20
6.903413931799665
 30
0.0
 70
     8
  0
VERTEX
  5
8F9
330
894
100
AcDbEntity
  8
ALL
 62
     3
100
AcDbVertex
100
AcDb2dVertex
 10
14.38118481261107
 20
6.890100464759473
 30
0.0
 70
     8
  0
VERTEX
  5
8FA
330
894
100
AcDbEntity
  8
ALL
 62
     3
100
AcDbVertex
100
AcDb2dVertex
 10
14.37890841973358
 20
6.87674605653574
 30
0.0
 70
     8
  0
VERTEX
  5
8FB
330
894
100
AcDbEntity
  8
ALL
 62
     3
100
AcDbVertex
100
AcDb2dVertex
 10
14.37665563951818
 20
6.863461813989221
 30
0.0
 70
     8
  0
VERTEX
  5
8FC
330
894
100
AcDbEntity
  8
ALL
 62
     3
100
AcDbVertex
100
AcDb2dVertex
 10
14.37445995685154
 20
6.850358843980647
 30
0.0
 70
     8
  0
VERTEX
  5
8FD
330
894
100
AcDbEntity
  8
ALL
 62
     3
100
AcDbVertex
100
AcDb2dVertex
 10
14.37235485662048
 20
6.837548253370744
 30
0.0
 70
     8
  0
VERTEX
  5
8FE
330
894
100
AcDbEntity
  8
ALL
 62
     3
100
AcDbVertex
100
AcDb2dVertex
 10
14.37037382371166
 20
6.825141149020257
 30
0.0
 70
     8
  0
VERTEX
  5
8FF
330
894
100
AcDbEntity
  8
ALL
 62
     3
100
AcDbVertex
100
AcDb2dVertex
 10
14.36854402878781
 20
6.813201183287947
 30
0.0
 70
     8
  0
VERTEX
  5
900
330
894
100
AcDbEntity
  8
ALL
 62
     3
100
AcDbVertex
100
AcDb2dVertex
 10
14.3668673856155
 20
6.80160219052475
 30
0.0
 70
     8
  0
VERTEX
  5
901
330
894
100
AcDbEntity
  8
ALL
 62
     3
100
AcDbVertex
100
AcDb2dVertex
 10
14.36533949373735
 20
6.790170550579677
 30
0.0
 70
     8
  0
VERTEX
  5
902
330
894
100
AcDbEntity
  8
ALL
 62
     3
100
AcDbVertex
100
AcDb2dVertex
 10
14.36395595269595
 20
6.778732643301697
 30
0.0
 70
     8
  0
VERTEX
  5
903
330
894
100
AcDbEntity
  8
ALL
 62
     3
100
AcDbVertex
100
AcDb2dVertex
 10
14.36271236203384
 20
6.76711484853978
 30
0.0
 70
     8
  0
VERTEX
  5
904
330
894
100
AcDbEntity
  8
ALL
 62
     3
100
AcDbVertex
100
AcDb2dVertex
 10
14.36160432129363
 20
6.755143546142949
 30
0.0
 70
     8
  0
VERTEX
  5
905
330
894
100
AcDbEntity
  8
ALL
 62
     3
100
AcDbVertex
100
AcDb2dVertex
 10
14.36062743001786
 20
6.742645115960147
 30
0.0
 70
     8
  0
VERTEX
  5
906
330
894
100
AcDbEntity
  8
ALL
 62
     3
100
AcDbVertex
100
AcDb2dVertex
 10
14.35977728774914
 20
6.729445937840399
 30
0.0
 70
     8
  0
VERTEX
  5
907
330
894
100
AcDbEntity
  8
ALL
 62
     3
100
AcDbVertex
100
AcDb2dVertex
 10
14.35904899406113
 20
6.715424743028908
 30
0.0
 70
     8
  0
VERTEX
  5
908
330
894
100
AcDbEntity
  8
ALL
 62
     3
100
AcDbVertex
100
AcDb2dVertex
 10
14.35843564865168
 20
6.70066966835596
 30
0.0
 70
     8
  0
VERTEX
  5
909
330
894
100
AcDbEntity
  8
ALL
 62
     3
100
AcDbVertex
100
AcDb2dVertex
 10
14.35792985124981
 20
6.68532120204809
 30
0.0
 70
     8
  0
VERTEX
  5
90A
330
894
100
AcDbEntity
  8
ALL
 62
     3
100
AcDbVertex
100
AcDb2dVertex
 10
14.35752420158441
 20
6.669519832331804
 30
0.0
 70
     8
  0
VERTEX
  5
90B
330
894
100
AcDbEntity
  8
ALL
 62
     3
100
AcDbVertex
100
AcDb2dVertex
 10
14.35721129938448
 20
6.653406047433652
 30
0.0
 70
     8
  0
VERTEX
  5
90C
330
894
100
AcDbEntity
  8
ALL
 62
     3
100
AcDbVertex
100
AcDb2dVertex
 10
14.35698374437893
 20
6.637120335580124
 30
0.0
 70
     8
  0
VERTEX
  5
90D
330
894
100
AcDbEntity
  8
ALL
 62
     3
100
AcDbVertex
100
AcDb2dVertex
 10
14.35683413629677
 20
6.620803184997772
 30
0.0
 70
     8
  0
VERTEX
  5
90E
330
894
100
AcDbEntity
  8
ALL
 62
     3
100
AcDbVertex
100
AcDb2dVertex
 10
14.35675507486691
 20
6.604595083913086
 30
0.0
 70
     8
  0
VERTEX
  5
90F
330
894
100
AcDbEntity
  8
ALL
 62
     3
100
AcDbVertex
100
AcDb2dVertex
 10
14.35673942894495
 20
6.588617010477737
 30
0.0
 70
     8
  0
VERTEX
  5
910
330
894
100
AcDbEntity
  8
ALL
 62
     3
100
AcDbVertex
100
AcDb2dVertex
 10
14.35678114389284
 20
6.572911902543683
 30
0.0
 70
     8
  0
VERTEX
  5
911
330
894
100
AcDbEntity
  8
ALL
 62
     3
100
AcDbVertex
100
AcDb2dVertex
 10
14.3568744341991
 20
6.557503187888034
 30
0.0
 70
     8
  0
VERTEX
  5
912
330
894
100
AcDbEntity
  8
ALL
 62
     3
100
AcDbVertex
100
AcDb2dVertex
 10
14.35701351435235
 20
6.542414294287898
 30
0.0
 70
     8
  0
VERTEX
  5
913
330
894
100
AcDbEntity
  8
ALL
 62
     3
100
AcDbVertex
100
AcDb2dVertex
 10
14.35719259884108
 20
6.527668649520354
 30
0.0
 70
     8
  0
VERTEX
  5
914
330
894
100
AcDbEntity
  8
ALL
 62
     3
100
AcDbVertex
100
AcDb2dVertex
 10
14.3574059021539
 20
6.513289681362511
 30
0.0
 70
     8
  0
VERTEX
  5
915
330
894
100
AcDbEntity
  8
ALL
 62
     3
100
AcDbVertex
100
AcDb2dVertex
 10
14.35764763877934
 20
6.49930081759145
 30
0.0
 70
     8
  0
VERTEX
  5
916
330
894
100
AcDbEntity
  8
ALL
 62
     3
100
AcDbVertex
100
AcDb2dVertex
 10
14.357912023206
 20
6.485725485984293
 30
0.0
 70
     8
  0
VERTEX
  5
917
330
894
100
AcDbEntity
  8
ALL
 62
     3
100
AcDbVertex
100
AcDb2dVertex
 10
14.35820213784486
 20
6.472561401603801
 30
0.0
 70
     8
  0
VERTEX
  5
918
330
894
100
AcDbEntity
  8
ALL
 62
     3
100
AcDbVertex
100
AcDb2dVertex
 10
14.35855653679672
 20
6.459703428655547
 30
0.0
 70
     8
  0
VERTEX
  5
919
330
894
100
AcDbEntity
  8
ALL
 62
     3
100
AcDbVertex
100
AcDb2dVertex
 10
14.35902264208487
 20
6.447020718630785
 30
0.0
 70
     8
  0
VERTEX
  5
91A
330
894
100
AcDbEntity
  8
ALL
 62
     3
100
AcDbVertex
100
AcDb2dVertex
 10
14.35964787573257
 20
6.434382423020782
 30
0.0
 70
     8
  0
VERTEX
  5
91B
330
894
100
AcDbEntity
  8
ALL
 62
     3
100
AcDbVertex
100
AcDb2dVertex
 10
14.36047965976305
 20
6.421657693316763
 30
0.0
 70
     8
  0
VERTEX
  5
91C
330
894
100
AcDbEntity
  8
ALL
 62
     3
100
AcDbVertex
100
AcDb2dVertex
 10
14.36156541619959
 20
6.40871568101004
 30
0.0
 70
     8
  0
VERTEX
  5
91D
330
894
100
AcDbEntity
  8
ALL
 62
     3
100
AcDbVertex
100
AcDb2dVertex
 10
14.36295256706545
 20
6.395425537591808
 30
0.0
 70
     8
  0
VERTEX
  5
91E
330
894
100
AcDbEntity
  8
ALL
 62
     3
100
AcDbVertex
100
AcDb2dVertex
 10
14.36468853438389
 20
6.381656414553351
 30
0.0
 70
     8
  0
VERTEX
  5
91F
330
894
100
AcDbEntity
  8
ALL
 62
     3
100
AcDbVertex
100
AcDb2dVertex
 10
14.3668364746858
 20
6.367208485332856
 30
0.0
 70
     8
  0
VERTEX
  5
920
330
894
100
AcDbEntity
  8
ALL
 62
     3
100
AcDbVertex
100
AcDb2dVertex
 10
14.36952248253245
 20
6.351606011156253
 30
0.0
 70
     8
  0
VERTEX
  5
921
330
894
100
AcDbEntity
  8
ALL
 62
     3
100
AcDbVertex
100
AcDb2dVertex
 10
14.37288838699282
 20
6.334304275196378
 30
0.0
 70
     8
  0
VERTEX
  5
922
330
894
100
AcDbEntity
  8
ALL
 62
     3
100
AcDbVertex
100
AcDb2dVertex
 10
14.37707601713577
 20
6.314758560626108
 30
0.0
 70
     8
  0
VERTEX
  5
923
330
894
100
AcDbEntity
  8
ALL
 62
     3
100
AcDbVertex
100
AcDb2dVertex
 10
14.38222720203023
 20
6.292424150618293
 30
0.0
 70
     8
  0
VERTEX
  5
924
330
894
100
AcDbEntity
  8
ALL
 62
     3
100
AcDbVertex
100
AcDb2dVertex
 10
14.38848377074514
 20
6.266756328345797
 30
0.0
 70
     8
  0
VERTEX
  5
925
330
894
100
AcDbEntity
  8
ALL
 62
     3
100
AcDbVertex
100
AcDb2dVertex
 10
14.39598755234941
 20
6.237210376981456
 30
0.0
 70
     8
  0
VERTEX
  5
926
330
894
100
AcDbEntity
  8
ALL
 62
     3
100
AcDbVertex
100
AcDb2dVertex
 10
14.40488037591196
 20
6.203241579698177
 30
0.0
 70
     8
  0
VERTEX
  5
927
330
894
100
AcDbEntity
  8
ALL
 62
     3
100
AcDbVertex
100
AcDb2dVertex
 10
14.54688862882675
 20
8.000811040327837
 30
0.0
 70
    16
  0
VERTEX
  5
928
330
894
100
AcDbEntity
  8
ALL
 62
     3
100
AcDbVertex
100
AcDb2dVertex
 10
14.56575524910865
 20
7.961800685443767
 30
0.0
 70
    16
  0
VERTEX
  5
929
330
894
100
AcDbEntity
  8
ALL
 62
     3
100
AcDbVertex
100
AcDb2dVertex
 10
14.59144757150331
 20
7.864835905394434
 30
0.0
 70
    16
  0
VERTEX
  5
92A
330
894
100
AcDbEntity
  8
ALL
 62
     3
100
AcDbVertex
100
AcDb2dVertex
 10
14.61010478993522
 20
7.752908184577355
 30
0.0
 70
    16
  0
VERTEX
  5
92B
330
894
100
AcDbEntity
  8
ALL
 62
     3
100
AcDbVertex
100
AcDb2dVertex
 10
14.59787741806407
 20
7.669037692574994
 30
0.0
 70
    16
  0
VERTEX
  5
92C
330
894
100
AcDbEntity
  8
ALL
 62
     3
100
AcDbVertex
100
AcDb2dVertex
 10
14.59261056867486
 20
7.574159572651911
 30
0.0
 70
    16
  0
VERTEX
  5
92D
330
894
100
AcDbEntity
  8
ALL
 62
     3
100
AcDbVertex
100
AcDb2dVertex
 10
14.55041428749083
 20
7.489376268177839
 30
0.0
 70
    16
  0
VERTEX
  5
92E
330
894
100
AcDbEntity
  8
ALL
 62
     3
100
AcDbVertex
100
AcDb2dVertex
 10
14.52625786967177
 20
7.425517558926973
 30
0.0
 70
    16
  0
VERTEX
  5
92F
330
894
100
AcDbEntity
  8
ALL
 62
     3
100
AcDbVertex
100
AcDb2dVertex
 10
14.49302558405963
 20
7.331718625548166
 30
0.0
 70
    16
  0
VERTEX
  5
930
330
894
100
AcDbEntity
  8
ALL
 62
     3
100
AcDbVertex
100
AcDb2dVertex
 10
14.46177669190796
 20
7.232919614999961
 30
0.0
 70
    16
  0
VERTEX
  5
931
330
894
100
AcDbEntity
  8
ALL
 62
     3
100
AcDbVertex
100
AcDb2dVertex
 10
14.42545314110611
 20
7.106166642302799
 30
0.0
 70
    16
  0
VERTEX
  5
932
330
894
100
AcDbEntity
  8
ALL
 62
     3
100
AcDbVertex
100
AcDb2dVertex
 10
14.40224108946218
 20
7.023326572030345
 30
0.0
 70
    16
  0
VERTEX
  5
933
330
894
100
AcDbEntity
  8
ALL
 62
     3
100
AcDbVertex
100
AcDb2dVertex
 10
14.38899763845361
 20
6.933465740387578
 30
0.0
 70
    16
  0
VERTEX
  5
934
330
894
100
AcDbEntity
  8
ALL
 62
     3
100
AcDbVertex
100
AcDb2dVertex
 10
14.36869326681581
 20
6.819652155738783
 30
0.0
 70
    16
  0
VERTEX
  5
935
330
894
100
AcDbEntity
  8
ALL
 62
     3
100
AcDbVertex
100
AcDb2dVertex
 10
14.35847223655311
 20
6.738772530778863
 30
0.0
 70
    16
  0
VERTEX
  5
936
330
894
100
AcDbEntity
  8
ALL
 62
     3
100
AcDbVertex
100
AcDb2dVertex
 10
14.35608151346664
 20
6.601933348188143
 30
0.0
 70
    16
  0
VERTEX
  5
937
330
894
100
AcDbEntity
  8
ALL
 62
     3
100
AcDbVertex
100
AcDb2dVertex
 10
14.35773215878196
 20
6.481064579947133
 30
0.0
 70
    16
  0
VERTEX
  5
938
330
894
100
AcDbEntity
  8
ALL
 62
     3
100
AcDbVertex
100
AcDb2dVertex
 10
14.36046199064156
 20
6.388161247929065
 30
0.0
 70
    16
  0
VERTEX
  5
939
330
894
100
AcDbEntity
  8
ALL
 62
     3
100
AcDbVertex
100
AcDb2dVertex
 10
14.3791880535173
 20
6.300206359747496
 30
0.0
 70
    16
  0
VERTEX
  5
93A
330
894
100
AcDbEntity
  8
ALL
 62
     3
100
AcDbVertex
100
AcDb2dVertex
 10
14.40488037591196
 20
6.203241579698177
 30
0.0
 70
    16
  0
SEQEND
  5
93B
330
894
100
AcDbEntity
  8
ALL
 62
     3
  0
LINE
  5
93C
330
2
100
AcDbEntity
  8
ALL
 62
     3
100
AcDbLine
 10
13.86055851742173
 20
9.233414633165031
 30
0.0
 11
13.86055851742173
 21
4.670914633165031
 31
0.0
  0
ARC
  5
93D
330
2
100
AcDbEntity
  8
ALL
 62
     3
100
AcDbCircle
 10
14.11055851742172
 20
4.858414633165031
 30
0.0
 40
0.1875
100
AcDbArc
 50
270.0
 51
0.0
  0
LINE
  5
93E
330
2
100
AcDbEntity
  8
ALL
 62
     3
100
AcDbLine
 10
14.29805851742172
 20
4.858414633165031
 30
0.0
 11
14.29805851742172
 21
6.191691452035334
 31
0.0
  0
LINE
  5
93F
330
2
100
AcDbEntity
  8
ALL
 62
     3
100
AcDbLine
 10
13.86055851742173
 20
4.670914633165031
 30
0.0
 11
14.11055851742172
 21
4.670914633165031
 31
0.0
  0
LINE
  5
940
330
2
100
AcDbEntity
  8
ALL
 62
     3
100
AcDbLine
 10
14.29805851742172
 20
6.191691452035334
 30
0.0
 11
14.40488037591196
 21
6.203241579698177
 31
0.0
  0
LINE
  5
941
330
2
100
AcDbEntity
  8
ALL
 62
     3
100
AcDbLine
 10
13.86055851742173
 20
9.233414633165031
 30
0.0
 11
14.67305851742173
 21
9.233414633165031
 31
0.0
  0
LINE
  5
942
330
2
100
AcDbEntity
  8
ALL
 62
     3
100
AcDbLine
 10
14.67305851742173
 20
8.108414633165031
 30
0.0
 11
14.51006533221617
 21
8.047863972756593
 31
0.0
  0
LINE
  5
943
330
2
100
AcDbEntity
  8
ALL
 62
     3
100
AcDbLine
 10
14.67305851742173
 20
9.233414633165031
 30
0.0
 11
14.67305851742173
 21
8.108414633165031
 31
0.0
  0
VIEWPORT
  5
10F
330
7
100
AcDbEntity
 67
     1
  8
0
100
AcDbViewport
 10
7.329044117647058
 20
4.494742024799509
 30
0.0
 40
14.65808823529411
 41
9.0
 68
     1
 69
     1
 12
7.329044117647058
 22
4.494742024799509
 13
0.0
 23
0.0
 14
0.5
 24
0.5
 15
0.5
 25
0.5
 16
0.0
 26
0.0
 36
1.0
 17
0.0
 27
0.0
 37
0.0
 42
50.0
 43
0.0
 44
0.0
 45
9.0
 50
0.0
 51
0.0
 72
   100
 90
    32800
  1

281
     0
 71
     1
 74
     0
110
0.0
120
0.0
130
0.0
111
1.0
121
0.0
131
0.0
112
0.0
122
1.0
132
0.0
 79
     0
146
0.0
  0
ENDSEC
  0
SECTION
  2
OBJECTS
  0
DICTIONARY
  5
1A
330
0
100
AcDbDictionary
281
     1
  3
ACAD_GROUP
350
18
  3
ACAD_IMAGE_DICT
350
1E2
  3
ACAD_IMAGE_VARS
350
1E3
  3
ACAD_LAYOUT
350
16B
  3
ACAD_MLINESTYLE
350
19
  3
ACAD_PLOTSETTINGS
350
16C
  3
ACAD_PLOTSTYLENAME
350
169
  3
AcDbVariableDictionary
350
475
  3
DWGPROPS
350
172
  0
DICTIONARY
  5
18
102
{ACAD_REACTORS
330
1A
102
}
330
1A
100
AcDbDictionary
281
     1
  0
DICTIONARY
  5
1E2
102
{ACAD_REACTORS
330
1A
102
}
330
1A
100
AcDbDictionary
281
     1
  3
darlin
350
1E4
  3
sc
350
3D3
  0
RASTERVARIABLES
  5
1E3
102
{ACAD_REACTORS
330
1A
102
}
330
1A
100
AcDbRasterVariables
 90
        0
 70
     1
 71
     1
 72
     0
  0
DICTIONARY
  5
16B
102
{ACAD_REACTORS
330
1A
102
}
330
1A
100
AcDbDictionary
281
     1
  3
Layout1
350
16E
  3
Model
350
16D
  0
DICTIONARY
  5
19
102
{ACAD_REACTORS
330
1A
102
}
330
1A
100
AcDbDictionary
281
     1
  3
STANDARD
350
1C
  0
DICTIONARY
  5
16C
102
{ACAD_REACTORS
330
1A
102
}
330
1A
100
AcDbDictionary
281
     1
  0
ACDBDICTIONARYWDFLT
  5
169
102
{ACAD_REACTORS
330
1A
102
}
330
1A
100
AcDbDictionary
281
     1
  3
Normal
350
16A
100
AcDbDictionaryWithDefault
340
16A
  0
DICTIONARY
  5
475
102
{ACAD_REACTORS
330
1A
102
}
330
1A
100
AcDbDictionary
281
     1
  3
DIMASSOC
350
476
  0
XRECORD
  5
172
102
{ACAD_REACTORS
330
1A
102
}
330
1A
100
AcDbXrecord
280
     1
  1
DWGPROPS COOKIE
  2

  3

  4

  6

  7

  8
Benson Wood Products
  9

300
=
301
=
302
=
303
=
304
=
305
=
306
=
307
=
308
=
309
=
 40
0.1320853009259259
 41
2451257.51637963
 42
2453236.309322916
  1

 90
        0
  0
IMAGEDEF
  5
1E4
102
{ACAD_REACTORS
330
1E2
102
}
330
1E2
100
AcDbRasterImageDef
 90
        0
  1
C:\AutoCAD 2000i\scans\darlin.bmp
 10
661.0
 20
624.0
 11
0.0846668355628098
 21
0.0846668355628098
280
     1
281
     2
  0
IMAGEDEF
  5
3D3
102
{ACAD_REACTORS
330
1E2
102
}
330
1E2
100
AcDbRasterImageDef
 90
        0
  1
C:\AutoCAD 2000i\scans\sc.bmp
 10
1285.0
 20
1897.0
 11
0.0423334177814049
 21
0.0423334177814049
280
     1
281
     2
  0
LAYOUT
  5
16E
102
{ACAD_REACTORS
330
16B
102
}
330
16B
100
AcDbPlotSettings
  1

  2
\\Bwp-cnc\HP LaserJet 6P
  4

  6

 40
0.0
 41
0.0
 42
0.0
 43
0.0
 44
0.0
 45
0.0
 46
0.0
 47
0.0
 48
0.0
 49
0.0
140
0.0
141
0.0
142
1.0
143
1.0
 70
   688
 72
     0
 73
     0
 74
     5
  7
monochrome.ctb
 75
    16
147
1.0
148
0.0
149
0.0
100
AcDbLayout
  1
Layout1
 70
     1
 71
     1
 10
0.0
 20
0.0
 11
12.0
 21
9.0
 12
0.0
 22
0.0
 32
0.0
 14
1.000000000000000E+20
 24
1.000000000000000E+20
 34
1.000000000000000E+20
 15
-1.000000000000000E+20
 25
-1.000000000000000E+20
 35
-1.000000000000000E+20
146
0.0
 13
0.0
 23
0.0
 33
0.0
 16
1.0
 26
0.0
 36
0.0
 17
0.0
 27
1.0
 37
0.0
 76
     0
330
7
331
10F
  0
LAYOUT
  5
16D
102
{ACAD_REACTORS
330
16B
102
}
330
16B
100
AcDbPlotSettings
  1

  2
PrimoPDF
  4
Letter
  6

 40
3.174999952316284
 41
3.174999952316284
 42
3.175003051757812
 43
3.17498779296875
 44
215.8999938964843
 45
279.3999938964843
 46
76.96199999999999
 47
68.072
 48
13.06904591313708
 49
3.920570610313793
140
15.25887128432006
141
9.320294151544086
142
1.0
143
1.0
 70
 11956
 72
     0
 73
     0
 74
     4
  7
monochrome.ctb
 75
    16
147
1.0
148
-331.953766193682
149
-99.58249350197036
100
AcDbLayout
  1
Model
 70
     1
 71
     0
 10
0.0
 20
0.0
 11
12.0
 21
9.0
 12
0.0
 22
0.0
 32
0.0
 14
0.0
 24
0.0
 34
0.0
 15
0.0
 25
0.0
 35
0.0
146
0.0
 13
0.0
 23
0.0
 33
0.0
 16
1.0
 26
0.0
 36
0.0
 17
0.0
 27
1.0
 37
0.0
 76
     0
330
2
  0
MLINESTYLE
  5
1C
102
{ACAD_REACTORS
330
19
102
}
330
19
100
AcDbMlineStyle
  2
STANDARD
 70
     0
  3

 62
     0
 51
90.0
 52
90.0
 71
     2
 49
0.5
 62
   256
  6
BYLAYER
 49
-0.5
 62
   256
  6
BYLAYER
  0
ACDBPLACEHOLDER
  5
16A
102
{ACAD_REACTORS
330
169
102
}
330
169
  0
DICTIONARYVAR
  5
476
102
{ACAD_REACTORS
330
475
102
}
330
475
100
DictionaryVariables
280
     0
  1
1
  0
ENDSEC
  0
EOF
