  0
SECTION
  2
HEADER
  9
$ACADVER
  1
AC1015
  9
$ACADMAINTVER
 70
    13
  9
$DWGCODEPAGE
  3
ANSI_1252
  9
$INSBASE
 10
0.0
 20
0.0
 30
0.0
  9
$EXTMIN
 10
9.303222695020053
 20
4.662048366225846
 30
-0.0015258207003583
  9
$EXTMAX
 10
10.4201660417255
 20
7.987472553955708
 30
0.0000000349246037
  9
$LIMMIN
 10
0.0
 20
0.0
  9
$LIMMAX
 10
12.0
 20
9.0
  9
$ORTHOMODE
 70
     0
  9
$REGENMODE
 70
     1
  9
$FILLMODE
 70
     1
  9
$QTEXTMODE
 70
     0
  9
$MIRRTEXT
 70
     1
  9
$LTSCALE
 40
1.0
  9
$ATTMODE
 70
     1
  9
$TEXTSIZE
 40
0.2
  9
$TRACEWID
 40
0.05
  9
$TEXTSTYLE
  7
STANDARD
  9
$CLAYER
  8
PROFILE
  9
$CELTYPE
  6
BYLAYER
  9
$CECOLOR
 62
   256
  9
$CELTSCALE
 40
1.0
  9
$DISPSILH
 70
     0
  9
$DIMSCALE
 40
1.0
  9
$DIMASZ
 40
0.18
  9
$DIMEXO
 40
0.0625
  9
$DIMDLI
 40
0.38
  9
$DIMRND
 40
0.0
  9
$DIMDLE
 40
0.0
  9
$DIMEXE
 40
0.18
  9
$DIMTP
 40
0.0
  9
$DIMTM
 40
0.0
  9
$DIMTXT
 40
0.18
  9
$DIMCEN
 40
0.09
  9
$DIMTSZ
 40
0.0
  9
$DIMTOL
 70
     0
  9
$DIMLIM
 70
     0
  9
$DIMTIH
 70
     1
  9
$DIMTOH
 70
     1
  9
$DIMSE1
 70
     0
  9
$DIMSE2
 70
     0
  9
$DIMTAD
 70
     0
  9
$DIMZIN
 70
     0
  9
$DIMBLK
  1

  9
$DIMASO
 70
     1
  9
$DIMSHO
 70
     1
  9
$DIMPOST
  1

  9
$DIMAPOST
  1

  9
$DIMALT
 70
     0
  9
$DIMALTD
 70
     2
  9
$DIMALTF
 40
25.4
  9
$DIMLFAC
 40
1.0
  9
$DIMTOFL
 70
     0
  9
$DIMTVP
 40
0.0
  9
$DIMTIX
 70
     0
  9
$DIMSOXD
 70
     0
  9
$DIMSAH
 70
     0
  9
$DIMBLK1
  1

  9
$DIMBLK2
  1

  9
$DIMSTYLE
  2
STANDARD_WS
  9
$DIMCLRD
 70
     0
  9
$DIMCLRE
 70
     0
  9
$DIMCLRT
 70
     0
  9
$DIMTFAC
 40
1.0
  9
$DIMGAP
 40
0.09
  9
$DIMJUST
 70
     0
  9
$DIMSD1
 70
     0
  9
$DIMSD2
 70
     0
  9
$DIMTOLJ
 70
     1
  9
$DIMTZIN
 70
     0
  9
$DIMALTZ
 70
     0
  9
$DIMALTTZ
 70
     0
  9
$DIMUPT
 70
     0
  9
$DIMDEC
 70
     4
  9
$DIMTDEC
 70
     4
  9
$DIMALTU
 70
     2
  9
$DIMALTTD
 70
     2
  9
$DIMTXSTY
  7
STANDARD
  9
$DIMAUNIT
 70
     0
  9
$DIMADEC
 70
     3
  9
$DIMALTRND
 40
0.0
  9
$DIMAZIN
 70
     0
  9
$DIMDSEP
 70
    46
  9
$DIMATFIT
 70
     3
  9
$DIMFRAC
 70
     0
  9
$DIMLDRBLK
  1

  9
$DIMLUNIT
 70
     2
  9
$DIMLWD
 70
    -2
  9
$DIMLWE
 70
    -2
  9
$DIMTMOVE
 70
     0
  9
$LUNITS
 70
     2
  9
$LUPREC
 70
     4
  9
$SKETCHINC
 40
0.1
  9
$FILLETRAD
 40
0.0
  9
$AUNITS
 70
     0
  9
$AUPREC
 70
     4
  9
$MENU
  1
.
  9
$ELEVATION
 40
0.0
  9
$PELEVATION
 40
0.0
  9
$THICKNESS
 40
0.0
  9
$LIMCHECK
 70
     0
  9
$CHAMFERA
 40
0.5
  9
$CHAMFERB
 40
0.5
  9
$CHAMFERC
 40
1.0
  9
$CHAMFERD
 40
0.0
  9
$SKPOLY
 70
     1
  9
$TDCREATE
 40
2451257.516379630
  9
$TDUCREATE
 40
2451257.724712962
  9
$TDUPDATE
 40
2454925.415595324
  9
$TDUUPDATE
 40
2454925.623928657
  9
$TDINDWG
 40
4.0341167130
  9
$TDUSRTIMER
 40
4.0341167130
  9
$USRTIMER
 70
     1
  9
$ANGBASE
 50
0.0
  9
$ANGDIR
 70
     0
  9
$PDMODE
 70
     0
  9
$PDSIZE
 40
0.0
  9
$PLINEWID
 40
0.0
  9
$SPLFRAME
 70
     0
  9
$SPLINETYPE
 70
     6
  9
$SPLINESEGS
 70
     8
  9
$HANDSEED
  5
886
  9
$SURFTAB1
 70
     6
  9
$SURFTAB2
 70
     6
  9
$SURFTYPE
 70
     6
  9
$SURFU
 70
     6
  9
$SURFV
 70
     6
  9
$UCSBASE
  2

  9
$UCSNAME
  2

  9
$UCSORG
 10
0.0
 20
0.0
 30
0.0
  9
$UCSXDIR
 10
1.0
 20
0.0
 30
0.0
  9
$UCSYDIR
 10
0.0
 20
1.0
 30
0.0
  9
$UCSORTHOREF
  2

  9
$UCSORTHOVIEW
 70
     0
  9
$UCSORGTOP
 10
0.0
 20
0.0
 30
0.0
  9
$UCSORGBOTTOM
 10
0.0
 20
0.0
 30
0.0
  9
$UCSORGLEFT
 10
0.0
 20
0.0
 30
0.0
  9
$UCSORGRIGHT
 10
0.0
 20
0.0
 30
0.0
  9
$UCSORGFRONT
 10
0.0
 20
0.0
 30
0.0
  9
$UCSORGBACK
 10
0.0
 20
0.0
 30
0.0
  9
$PUCSBASE
  2

  9
$PUCSNAME
  2

  9
$PUCSORG
 10
0.0
 20
0.0
 30
0.0
  9
$PUCSXDIR
 10
1.0
 20
0.0
 30
0.0
  9
$PUCSYDIR
 10
0.0
 20
1.0
 30
0.0
  9
$PUCSORTHOREF
  2

  9
$PUCSORTHOVIEW
 70
     0
  9
$PUCSORGTOP
 10
0.0
 20
0.0
 30
0.0
  9
$PUCSORGBOTTOM
 10
0.0
 20
0.0
 30
0.0
  9
$PUCSORGLEFT
 10
0.0
 20
0.0
 30
0.0
  9
$PUCSORGRIGHT
 10
0.0
 20
0.0
 30
0.0
  9
$PUCSORGFRONT
 10
0.0
 20
0.0
 30
0.0
  9
$PUCSORGBACK
 10
0.0
 20
0.0
 30
0.0
  9
$USERI1
 70
     0
  9
$USERI2
 70
     0
  9
$USERI3
 70
     0
  9
$USERI4
 70
     0
  9
$USERI5
 70
     0
  9
$USERR1
 40
0.0
  9
$USERR2
 40
0.0
  9
$USERR3
 40
0.0
  9
$USERR4
 40
0.0
  9
$USERR5
 40
0.0
  9
$WORLDVIEW
 70
     1
  9
$SHADEDGE
 70
     3
  9
$SHADEDIF
 70
    70
  9
$TILEMODE
 70
     1
  9
$MAXACTVP
 70
    48
  9
$PINSBASE
 10
0.0
 20
0.0
 30
0.0
  9
$PLIMCHECK
 70
     0
  9
$PEXTMIN
 10
1.000000000000000E+20
 20
1.000000000000000E+20
 30
1.000000000000000E+20
  9
$PEXTMAX
 10
-1.000000000000000E+20
 20
-1.000000000000000E+20
 30
-1.000000000000000E+20
  9
$PLIMMIN
 10
0.0
 20
0.0
  9
$PLIMMAX
 10
12.0
 20
9.0
  9
$UNITMODE
 70
     0
  9
$VISRETAIN
 70
     0
  9
$PLINEGEN
 70
     0
  9
$PSLTSCALE
 70
     1
  9
$TREEDEPTH
 70
  3020
  9
$CMLSTYLE
  2
STANDARD
  9
$CMLJUST
 70
     0
  9
$CMLSCALE
 40
1.0
  9
$PROXYGRAPHICS
 70
     1
  9
$MEASUREMENT
 70
     0
  9
$CELWEIGHT
370
    -1
  9
$ENDCAPS
280
     0
  9
$JOINSTYLE
280
     0
  9
$LWDISPLAY
290
     0
  9
$INSUNITS
 70
     0
  9
$HYPERLINKBASE
  1

  9
$STYLESHEET
  1
monochrome.ctb
  9
$XEDIT
290
     1
  9
$CEPSNTYPE
380
     0
  9
$PSTYLEMODE
290
     1
  9
$FINGERPRINTGUID
  2
{89108230-6C88-44B9-880F-278BAA3B4DED}
  9
$VERSIONGUID
  2
{DE1B7942-AE0F-4C52-9401-39B7E64DCE19}
  9
$EXTNAMES
290
     1
  9
$PSVPSCALE
 40
0.0
  9
$OLESTARTUP
290
     0
  0
ENDSEC
  0
SECTION
  2
CLASSES
  0
CLASS
  1
DICTIONARYVAR
  2
AcDbDictionaryVar
  3
AutoCAD 2000
 90
        0
280
     0
281
     0
  0
CLASS
  1
ACDBDICTIONARYWDFLT
  2
AcDbDictionaryWithDefault
  3
AutoCAD 2000
 90
        0
280
     0
281
     0
  0
CLASS
  1
ACDBPLACEHOLDER
  2
AcDbPlaceHolder
  3
AutoCAD 2000
 90
        0
280
     0
281
     0
  0
CLASS
  1
LAYOUT
  2
AcDbLayout
  3
AutoCAD 2000
 90
        0
280
     0
281
     0
  0
CLASS
  1
RASTERVARIABLES
  2
AcDbRasterVariables
  3
ISM
 90
        0
280
     0
281
     0
  0
CLASS
  1
IMAGEDEF
  2
AcDbRasterImageDef
  3
ISM
 90
        0
280
     0
281
     0
  0
CLASS
  1
IMAGEDEF_REACTOR
  2
AcDbRasterImageDefReactor
  3
ISM
 90
    32769
280
     0
281
     0
  0
CLASS
  1
IMAGE
  2
AcDbRasterImage
  3
ISM
 90
    32895
280
     0
281
     1
  0
ENDSEC
  0
SECTION
  2
TABLES
  0
TABLE
  2
VPORT
  5
12
330
0
100
AcDbSymbolTable
 70
     4
  0
VPORT
  5
885
330
12
100
AcDbSymbolTableRecord
100
AcDbViewportTableRecord
  2
*Active
 70
     0
 10
0.0
 20
0.0
 11
1.0
 21
1.0
 12
10.55043519681821
 22
6.396245890039264
 13
0.0
 23
0.0
 14
0.5
 24
0.5
 15
0.5
 25
0.5
 16
0.0
 26
0.0
 36
1.0
 17
0.0
 27
0.0
 37
0.0
 40
4.513752521608124
 41
1.672438672438672
 42
50.0
 43
0.0
 44
0.0
 50
0.0
 51
0.0
 71
     0
 72
   100
 73
     1
 74
     1
 75
     0
 76
     0
 77
     0
 78
     0
281
     0
 65
     1
110
0.0
120
0.0
130
0.0
111
1.0
121
0.0
131
0.0
112
0.0
122
1.0
132
0.0
 79
     0
146
0.0
  0
ENDTAB
  0
TABLE
  2
LTYPE
  5
D
330
0
100
AcDbSymbolTable
 70
     1
  0
LTYPE
  5
E
330
D
100
AcDbSymbolTableRecord
100
AcDbLinetypeTableRecord
  2
BYBLOCK
 70
     0
  3

 72
    65
 73
     0
 40
0.0
  0
LTYPE
  5
F
330
D
100
AcDbSymbolTableRecord
100
AcDbLinetypeTableRecord
  2
BYLAYER
 70
     0
  3

 72
    65
 73
     0
 40
0.0
  0
LTYPE
  5
5
330
D
100
AcDbSymbolTableRecord
100
AcDbLinetypeTableRecord
  2
CONTINUOUS
 70
     0
  3
Solid line
 72
    65
 73
     0
 40
0.0
  0
ENDTAB
  0
TABLE
  2
LAYER
  5
A
330
0
100
AcDbSymbolTable
 70
     6
  0
LAYER
  5
4
330
A
100
AcDbSymbolTableRecord
100
AcDbLayerTableRecord
  2
0
 70
     0
 62
     7
  6
CONTINUOUS
370
    -3
390
16A
  0
LAYER
  5
1F
330
A
100
AcDbSymbolTableRecord
100
AcDbLayerTableRecord
  2
PROFILE
 70
     0
 62
     3
  6
CONTINUOUS
370
    -3
390
16A
  0
LAYER
  5
1B
330
A
100
AcDbSymbolTableRecord
100
AcDbLayerTableRecord
  2
DEFPOINTS
 70
     0
 62
     7
  6
CONTINUOUS
290
     0
370
    -3
390
16A
  0
LAYER
  5
27
330
A
100
AcDbSymbolTableRecord
100
AcDbLayerTableRecord
  2
TEXT
 70
     0
 62
     5
  6
CONTINUOUS
370
    -3
390
16A
  0
LAYER
  5
28
330
A
100
AcDbSymbolTableRecord
100
AcDbLayerTableRecord
  2
DIMENSION
 70
     0
 62
     1
  6
CONTINUOUS
370
    -3
390
16A
  0
LAYER
  5
750
330
A
100
AcDbSymbolTableRecord
100
AcDbLayerTableRecord
  2
ALL
 70
     0
 62
     7
  6
CONTINUOUS
370
    -3
390
16A
  0
ENDTAB
  0
TABLE
  2
STYLE
  5
B
330
0
100
AcDbSymbolTable
 70
     3
  0
STYLE
  5
C
330
B
100
AcDbSymbolTableRecord
100
AcDbTextStyleTableRecord
  2
STANDARD
 70
     0
 40
0.0
 41
1.0
 50
0.0
 71
     0
 42
0.2
  3
txt
  4

  0
STYLE
  5
751
330
B
100
AcDbSymbolTableRecord
100
AcDbTextStyleTableRecord
  2
PANROMAN
 70
     0
 40
0.25
 41
1.25
 50
10.0
 71
     0
 42
0.25
  3
par_____.pfb
  4

  0
STYLE
  5
752
330
B
100
AcDbSymbolTableRecord
100
AcDbTextStyleTableRecord
  2
TEST
 70
     0
 40
0.0
 41
1.0
 50
0.0
 71
     0
 42
0.25
  3
ROMANC.SHX
  4

  0
ENDTAB
  0
TABLE
  2
VIEW
  5
10
330
0
100
AcDbSymbolTable
 70
     0
  0
ENDTAB
  0
TABLE
  2
UCS
  5
11
330
0
100
AcDbSymbolTable
 70
     0
  0
ENDTAB
  0
TABLE
  2
APPID
  5
14
330
0
100
AcDbSymbolTable
 70
     2
  0
APPID
  5
15
330
14
100
AcDbSymbolTableRecord
100
AcDbRegAppTableRecord
  2
ACAD
 70
     0
  0
APPID
  5
171
330
14
100
AcDbSymbolTableRecord
100
AcDbRegAppTableRecord
  2
NCPOLARIS_BASE
 70
     0
  0
ENDTAB
  0
TABLE
  2
DIMSTYLE
  5
16
330
0
100
AcDbSymbolTable
 70
     2
100
AcDbDimStyleTable
 71
     1
340
1D
  0
DIMSTYLE
105
1D
330
16
100
AcDbSymbolTableRecord
100
AcDbDimStyleTableRecord
  2
STANDARD_WS
 70
     0
179
     3
340
C
  0
DIMSTYLE
105
39
330
16
100
AcDbSymbolTableRecord
100
AcDbDimStyleTableRecord
  2
STANDARD
 70
     0
340
C
  0
ENDTAB
  0
TABLE
  2
BLOCK_RECORD
  5
1
330
0
100
AcDbSymbolTable
 70
     5
  0
BLOCK_RECORD
  5
2
330
1
100
AcDbSymbolTableRecord
100
AcDbBlockTableRecord
  2
*MODEL_SPACE
340
16D
  0
BLOCK_RECORD
  5
7
330
1
100
AcDbSymbolTableRecord
100
AcDbBlockTableRecord
  2
*PAPER_SPACE
340
16E
  0
BLOCK_RECORD
  5
3A
330
1
100
AcDbSymbolTableRecord
100
AcDbBlockTableRecord
  2
F
340
0
  0
BLOCK_RECORD
  5
8E
330
1
100
AcDbSymbolTableRecord
100
AcDbBlockTableRecord
  2
D
340
0
  0
BLOCK_RECORD
  5
AC
330
1
100
AcDbSymbolTableRecord
100
AcDbBlockTableRecord
  2
CCCROWN
340
0
  0
BLOCK_RECORD
  5
5B6
330
1
100
AcDbSymbolTableRecord
100
AcDbBlockTableRecord
  2
track
340
0
  0
ENDTAB
  0
ENDSEC
  0
SECTION
  2
BLOCKS
  0
BLOCK
  5
3
330
2
100
AcDbEntity
  8
0
100
AcDbBlockBegin
  2
*MODEL_SPACE
 70
     0
 10
0.0
 20
0.0
 30
0.0
  3
*MODEL_SPACE
  1

  0
ENDBLK
  5
6
330
2
100
AcDbEntity
  8
0
100
AcDbBlockEnd
  0
BLOCK
  5
8
330
7
100
AcDbEntity
 67
     1
  8
0
100
AcDbBlockBegin
  2
*PAPER_SPACE
 70
     0
 10
0.0
 20
0.0
 30
0.0
  3
*PAPER_SPACE
  1

  0
ENDBLK
  5
9
330
7
100
AcDbEntity
 67
     1
  8
0
100
AcDbBlockEnd
  0
BLOCK
  5
46
330
3A
100
AcDbEntity
  8
0
100
AcDbBlockBegin
  2
F
 70
     0
 10
0.0
 20
0.0
 30
0.0
  3
F
  1

  0
CIRCLE
  5
3B
330
3A
100
AcDbEntity
  8
0
 62
     7
100
AcDbCircle
 10
0.0410665214247617
 20
-0.016701615976765
 30
0.0
 40
0.0183435
  0
CIRCLE
  5
3C
330
3A
100
AcDbEntity
  8
0
 62
     7
100
AcDbCircle
 10
0.0068044214247617
 20
-0.000720415976765
 30
0.0
 40
0.0194689
  0
CIRCLE
  5
3D
330
3A
100
AcDbEntity
  8
0
 62
     7
100
AcDbCircle
 10
0.0369728214247617
 20
-0.013878215976765
 30
0.0
 40
0.0139466
  0
CIRCLE
  5
3E
330
3A
100
AcDbEntity
  8
0
 62
     7
100
AcDbCircle
 10
0.1138706214247617
 20
0.0152964840232351
 30
0.0
 40
0.0058588
  0
LINE
  5
3F
330
3A
100
AcDbEntity
  8
0
 62
     7
100
AcDbLine
 10
0.1550692214247617
 20
-0.023509915976765
 30
0.0
 11
0.1179283214247617
 21
-0.024196615976765
 31
0.0
  0
LINE
  5
40
330
3A
100
AcDbEntity
  8
0
 62
     7
100
AcDbLine
 10
0.0092153214247617
 20
-0.029690015976765
 30
0.0
 11
0.0457186214247617
 21
-0.028454015976765
 31
0.0
  0
LINE
  5
41
330
3A
100
AcDbEntity
  8
0
 62
     7
100
AcDbLine
 10
0.0088965214247617
 20
-0.020076515976765
 30
0.0
 11
0.0092153214247617
 21
-0.029690015976765
 31
0.0
  0
LINE
  5
42
330
3A
100
AcDbEntity
  8
0
 62
     7
100
AcDbLine
 10
0.0353574214247617
 20
-0.000025415976765
 30
0.0
 11
0.0355168214247617
 21
0.009313484023235
 31
0.0
  0
LINE
  5
43
330
3A
100
AcDbEntity
  8
0
 62
     7
100
AcDbLine
 10
0.1196817214247617
 20
0.0160428840232351
 30
0.0
 11
0.1550692214247617
 21
0.0165922840232351
 31
0.0
  0
LINE
  5
44
330
3A
100
AcDbEntity
  8
0
 62
     7
100
AcDbLine
 10
0.1537940214247617
 20
-0.023235215976765
 30
0.0
 11
0.1526782214247617
 21
0.0172789840232351
 31
0.0
  0
LINE
  5
45
330
3A
100
AcDbEntity
  8
0
 62
     7
100
AcDbLine
 10
0.1142620214247617
 20
0.009450784023235
 30
0.0
 11
0.0363138214247617
 21
0.005193384023235
 31
0.0
  0
ENDBLK
  5
47
330
3A
100
AcDbEntity
  8
0
100
AcDbBlockEnd
  0
BLOCK
  5
9B
330
8E
100
AcDbEntity
  8
0
100
AcDbBlockBegin
  2
D
 70
     0
 10
0.0
 20
0.0
 30
0.0
  3
D
  1

  0
CIRCLE
  5
8F
330
8E
100
AcDbEntity
  8
0
 62
     7
100
AcDbCircle
 10
-0.1168512632442014
 20
0.0286128993414634
 30
0.0
 40
0.0184624
  0
CIRCLE
  5
90
330
8E
100
AcDbEntity
  8
0
 62
     7
100
AcDbCircle
 10
-0.1124979632442014
 20
0.0309464993414634
 30
0.0
 40
0.0254615
  0
CIRCLE
  5
91
330
8E
100
AcDbEntity
  8
0
 62
     7
100
AcDbCircle
 10
-0.1098053632442014
 20
0.0273971993414634
 30
0.0
 40
0.0219833
  0
LINE
  5
92
330
8E
100
AcDbEntity
  8
0
 62
     7
100
AcDbLine
 10
-0.1130932632442014
 20
0.0708659993414634
 30
0.0
 11
-0.1446799632442014
 21
0.0404778993414634
 31
0.0
  0
LINE
  5
93
330
8E
100
AcDbEntity
  8
0
 62
     7
100
AcDbLine
 10
-0.1297586632442014
 20
0.0418136993414634
 30
0.0
 11
-0.1400291632442014
 21
0.0504959993414634
 31
0.0
  0
LINE
  5
94
330
8E
100
AcDbEntity
  8
0
 62
     7
100
AcDbLine
 10
-0.1082487632442014
 20
0.0710328993414634
 30
0.0
 11
-0.0784060632442014
 21
0.0398100993414634
 31
0.0
  0
LINE
  5
95
330
8E
100
AcDbEntity
  8
0
 62
     7
100
AcDbLine
 10
-0.0920669632442015
 20
0.0403824993414634
 30
0.0
 11
-0.0844133632442015
 21
0.0478244993414634
 31
0.0
  0
LINE
  5
96
330
8E
100
AcDbEntity
  8
0
 62
     7
100
AcDbLine
 10
-0.0178829632442014
 20
0.0352731993414634
 30
0.0
 11
-0.0253094632442014
 21
0.0404778993414634
 31
0.0
  0
CIRCLE
  5
97
330
8E
100
AcDbEntity
  8
0
 62
     7
100
AcDbCircle
 10
-0.0019354632442014
 20
0.0279654993414634
 30
0.0
 40
0.0175421
  0
LINE
  5
98
330
8E
100
AcDbEntity
  8
0
 62
     7
100
AcDbLine
 10
-0.0253094632442014
 20
0.0404778993414634
 30
0.0
 11
-0.0074813632442014
 21
0.0643541993414634
 31
0.0
  0
LINE
  5
99
330
8E
100
AcDbEntity
  8
0
 62
     7
100
AcDbLine
 10
0.0161602367557986
 20
0.0461547993414634
 30
0.0
 11
-0.0074813632442014
 21
0.0643541993414634
 31
0.0
  0
LINE
  5
9A
330
8E
100
AcDbEntity
  8
0
 62
     7
100
AcDbLine
 10
0.0108860367557986
 20
0.0399377993414634
 30
0.0
 11
0.0161602367557986
 21
0.0461547993414634
 31
0.0
  0
ENDBLK
  5
9C
330
8E
100
AcDbEntity
  8
0
100
AcDbBlockEnd
  0
BLOCK
  5
BC
330
AC
100
AcDbEntity
  8
0
100
AcDbBlockBegin
  2
CCCROWN
 70
     0
 10
0.0
 20
0.0
 30
0.0
  3
CCCROWN
  1

  0
CIRCLE
  5
AD
330
AC
100
AcDbEntity
  8
0
 62
     7
100
AcDbCircle
 10
1.453151451829637
 20
0.6765280889605166
 30
0.0
 40
1.344812
  0
LINE
  5
AE
330
AC
100
AcDbEntity
  8
0
 62
     7
100
AcDbLine
 10
0.8618244518296375
 20
0.5174780889605167
 30
0.0
 11
0.8767584518296375
 21
-0.6765521110394835
 31
0.0
  0
LINE
  5
AF
330
AC
100
AcDbEntity
  8
0
 62
     7
100
AcDbLine
 10
0.2226365518296377
 20
0.5174780889605167
 30
0.0
 11
0.2226365518296377
 21
0.1609270889605165
 31
0.0
  0
CIRCLE
  5
B0
330
AC
100
AcDbEntity
  8
0
 62
     7
100
AcDbCircle
 10
0.0027955518296377
 20
-0.7486109110394834
 30
0.0
 40
0.6896503000000001
  0
CIRCLE
  5
B1
330
AC
100
AcDbEntity
  8
0
 62
     7
100
AcDbCircle
 10
0.4295939518296377
 20
0.0154420889605165
 30
0.0
 40
0.1281395
  0
LINE
  5
B2
330
AC
100
AcDbEntity
  8
0
 62
     7
100
AcDbLine
 10
0.2315971518296377
 20
0.1443430889605164
 30
0.0
 11
0.2584788518296377
 21
0.1388150889605166
 31
0.0
  0
LINE
  5
B3
330
AC
100
AcDbEntity
  8
0
 62
     7
100
AcDbLine
 10
0.2226365518296377
 20
0.1609270889605165
 30
0.0
 11
0.2315971518296377
 21
0.1443430889605164
 31
0.0
  0
LINE
  5
B4
330
AC
100
AcDbEntity
  8
0
 62
     7
100
AcDbLine
 10
0.2823736518296376
 20
0.1360510889605164
 30
0.0
 11
0.3480845518296377
 21
0.1305240889605166
 31
0.0
  0
LINE
  5
B5
330
AC
100
AcDbEntity
  8
0
 62
     7
100
AcDbLine
 10
0.2584788518296377
 20
0.1388150889605166
 30
0.0
 11
0.2823736518296376
 21
0.1360510889605164
 31
0.0
  0
LINE
  5
B6
330
AC
100
AcDbEntity
  8
0
 62
     7
100
AcDbLine
 10
0.3480845518296377
 20
0.1305240889605166
 30
0.0
 11
0.3510714518296377
 21
0.1167040889605164
 31
0.0
  0
LINE
  5
B7
330
AC
100
AcDbEntity
  8
0
 62
     7
100
AcDbLine
 10
0.8767584518296375
 20
-0.6765521110394835
 30
0.0
 11
0.7304024518296377
 21
-0.6793160110394835
 31
0.0
  0
LINE
  5
B8
330
AC
100
AcDbEntity
  8
0
 62
     7
100
AcDbLine
 10
0.6855994518296377
 20
-0.6572044110394835
 30
0.0
 11
0.6885863518296378
 21
-0.6378567110394835
 31
0.0
  0
LINE
  5
B9
330
AC
100
AcDbEntity
  8
0
 62
     7
100
AcDbLine
 10
0.7304024518296377
 20
-0.6793160110394835
 30
0.0
 11
0.7065074518296378
 21
-0.6737881110394835
 31
0.0
  0
LINE
  5
BA
330
AC
100
AcDbEntity
  8
0
 62
     7
100
AcDbLine
 10
0.7065074518296378
 20
-0.6737881110394835
 30
0.0
 11
0.6855994518296377
 21
-0.6572044110394835
 31
0.0
  0
LINE
  5
BB
330
AC
100
AcDbEntity
  8
0
 62
     7
100
AcDbLine
 10
0.2226365518296377
 20
0.5174780889605167
 30
0.0
 11
0.8618244518296375
 21
0.5174780889605167
 31
0.0
  0
ENDBLK
  5
BD
330
AC
100
AcDbEntity
  8
0
100
AcDbBlockEnd
  0
BLOCK
  5
5C3
330
5B6
100
AcDbEntity
  8
0
100
AcDbBlockBegin
  2
track
 70
     0
 10
0.0
 20
0.0
 30
0.0
  3
track
  1

  0
LINE
  5
5B7
330
5B6
100
AcDbEntity
  8
PROFILE
100
AcDbLine
 10
16.53207238374206
 20
4.044320932551642
 30
0.0
 11
16.53207238374207
 21
5.014320932551641
 31
0.0
  0
LINE
  5
5B8
330
5B6
100
AcDbEntity
  8
PROFILE
100
AcDbLine
 10
15.60207238374206
 20
4.044320932551642
 30
0.0
 11
15.60207238374206
 21
5.014320932551641
 31
0.0
  0
LINE
  5
5B9
330
5B6
100
AcDbEntity
  8
PROFILE
100
AcDbLine
 10
15.47707238374207
 20
3.919320932551641
 30
0.0
 11
15.47707238374206
 21
5.13932093255164
 31
0.0
  0
LINE
  5
5BA
330
5B6
100
AcDbEntity
  8
PROFILE
100
AcDbLine
 10
16.65707238374206
 20
3.919320932551642
 30
0.0
 11
16.65707238374206
 21
5.13932093255164
 31
0.0
  0
LINE
  5
5BB
330
5B6
100
AcDbEntity
  8
PROFILE
100
AcDbLine
 10
15.60207238374206
 20
4.044320932551642
 30
0.0
 11
15.81707238374206
 21
4.044320932551641
 31
0.0
  0
LINE
  5
5BC
330
5B6
100
AcDbEntity
  8
PROFILE
100
AcDbLine
 10
15.47707238374207
 20
3.919320932551641
 30
0.0
 11
15.81707238374206
 21
3.919320932551641
 31
0.0
  0
LINE
  5
5BD
330
5B6
100
AcDbEntity
  8
PROFILE
100
AcDbLine
 10
15.81707238374207
 20
3.919320932551642
 30
0.0
 11
15.81707238374206
 21
4.044320932551641
 31
0.0
  0
LINE
  5
5BE
330
5B6
100
AcDbEntity
  8
PROFILE
100
AcDbLine
 10
16.31707238374207
 20
3.919320932551641
 30
0.0
 11
16.65707238374206
 21
3.919320932551642
 31
0.0
  0
LINE
  5
5BF
330
5B6
100
AcDbEntity
  8
PROFILE
100
AcDbLine
 10
16.31707238374207
 20
3.919320932551642
 30
0.0
 11
16.31707238374206
 21
4.04432093255164
 31
0.0
  0
LINE
  5
5C0
330
5B6
100
AcDbEntity
  8
PROFILE
100
AcDbLine
 10
16.31707238374206
 20
4.04432093255164
 30
0.0
 11
16.53207238374206
 21
4.044320932551642
 31
0.0
  0
LINE
  5
5C1
330
5B6
100
AcDbEntity
  8
PROFILE
100
AcDbLine
 10
15.60207238374206
 20
5.014320932551641
 30
0.0
 11
16.53207238374207
 21
5.014320932551641
 31
0.0
  0
LINE
  5
5C2
330
5B6
100
AcDbEntity
  8
PROFILE
100
AcDbLine
 10
15.47707238374206
 20
5.13932093255164
 30
0.0
 11
16.65707238374206
 21
5.13932093255164
 31
0.0
  0
ENDBLK
  5
5C4
330
5B6
100
AcDbEntity
  8
0
100
AcDbBlockEnd
  0
ENDSEC
  0
SECTION
  2
ENTITIES
  0
TEXT
  5
81D
330
2
100
AcDbEntity
  8
ALL
 62
     1
100
AcDbText
 10
9.290530082029846
 20
4.687159930271202
 30
0.0
 40
0.075
  1
5/8" x 2 5/8"
 41
1.25
  7
TEST
 72
     1
 11
9.861958653458417
 21
4.687159930271202
 31
0.0
100
AcDbText
  0
TEXT
  5
81E
330
2
100
AcDbEntity
  8
ALL
 62
     1
100
AcDbText
 10
9.367396428788813
 20
4.831951354463845
 30
0.0
 40
0.125
  1
BWP-2006
 41
1.25
  7
PANROMAN
 72
     1
 11
9.861958653458417
 21
4.831951354463845
 31
0.0
100
AcDbText
  0
LINE
  5
81F
330
2
100
AcDbEntity
  8
ALL
 62
     3
100
AcDbLine
 10
10.13781030535545
 20
7.441881753292357
 30
0.0
 11
10.13781030535545
 21
6.102443558704545
 31
0.0
  0
LINE
  5
820
330
2
100
AcDbEntity
  8
ALL
 62
     3
100
AcDbLine
 10
9.677170165677688
 20
7.412003964992671
 30
0.0
 11
9.677170165677688
 21
6.20784679498521
 31
0.0
  0
LINE
  5
821
330
2
100
AcDbEntity
  8
ALL
 62
     3
100
AcDbLine
 10
9.606560305355452
 20
5.361818558704544
 30
0.0
 11
9.794060305355452
 21
5.361818558704544
 31
0.0
  0
LINE
  5
822
330
2
100
AcDbEntity
  8
ALL
 62
     3
100
AcDbLine
 10
9.606560305355452
 20
6.150212721174123
 30
0.0
 11
9.606560305355452
 21
5.361818558704544
 31
0.0
  0
LINE
  5
823
330
2
100
AcDbEntity
  8
ALL
 62
     3
100
AcDbLine
 10
9.677170165677688
 20
6.20784679498521
 30
0.0
 11
9.606560305355452
 21
6.150212721174116
 31
0.0
  0
POLYLINE
  5
824
330
2
100
AcDbEntity
  8
ALL
 62
     3
100
AcDb2dPolyline
 66
     1
 10
0.0
 20
0.0
 30
0.0
 70
     4
 75
     6
  0
VERTEX
  5
825
330
824
100
AcDbEntity
  8
ALL
 62
     3
100
AcDbVertex
100
AcDb2dVertex
 10
10.01288645197808
 20
6.098081121616732
 30
0.0
 70
    16
  0
VERTEX
  5
826
330
824
100
AcDbEntity
  8
ALL
 62
     3
100
AcDbVertex
100
AcDb2dVertex
 10
10.01288645197808
 20
6.098081121616732
 30
0.0
 70
     8
  0
VERTEX
  5
827
330
824
100
AcDbEntity
  8
ALL
 62
     3
100
AcDbVertex
100
AcDb2dVertex
 10
10.0183010514583
 20
6.081692614980158
 30
0.0
 70
     8
  0
VERTEX
  5
828
330
824
100
AcDbEntity
  8
ALL
 62
     3
100
AcDbVertex
100
AcDb2dVertex
 10
10.02396139045057
 20
6.0660446203583
 30
0.0
 70
     8
  0
VERTEX
  5
829
330
824
100
AcDbEntity
  8
ALL
 62
     3
100
AcDbVertex
100
AcDb2dVertex
 10
10.02972085276698
 20
6.051092207328077
 30
0.0
 70
     8
  0
VERTEX
  5
82A
330
824
100
AcDbEntity
  8
ALL
 62
     3
100
AcDbVertex
100
AcDb2dVertex
 10
10.03543282221971
 20
6.036790445466404
 30
0.0
 70
     8
  0
VERTEX
  5
82B
330
824
100
AcDbEntity
  8
ALL
 62
     3
100
AcDbVertex
100
AcDb2dVertex
 10
10.04095068262096
 20
6.023094404350199
 30
0.0
 70
     8
  0
VERTEX
  5
82C
330
824
100
AcDbEntity
  8
ALL
 62
     3
100
AcDbVertex
100
AcDb2dVertex
 10
10.04612781778288
 20
6.009959153556375
 30
0.0
 70
     8
  0
VERTEX
  5
82D
330
824
100
AcDbEntity
  8
ALL
 62
     3
100
AcDbVertex
100
AcDb2dVertex
 10
10.05081761151762
 20
5.997339762661854
 30
0.0
 70
     8
  0
VERTEX
  5
82E
330
824
100
AcDbEntity
  8
ALL
 62
     3
100
AcDbVertex
100
AcDb2dVertex
 10
10.05487344763741
 20
5.985191301243555
 30
0.0
 70
     8
  0
VERTEX
  5
82F
330
824
100
AcDbEntity
  8
ALL
 62
     3
100
AcDbVertex
100
AcDb2dVertex
 10
10.05818201614254
 20
5.973471889799749
 30
0.0
 70
     8
  0
VERTEX
  5
830
330
824
100
AcDbEntity
  8
ALL
 62
     3
100
AcDbVertex
100
AcDb2dVertex
 10
10.06076323178592
 20
5.962151852514135
 30
0.0
 70
     8
  0
VERTEX
  5
831
330
824
100
AcDbEntity
  8
ALL
 62
     3
100
AcDbVertex
100
AcDb2dVertex
 10
10.06267031550873
 20
5.951204564491741
 30
0.0
 70
     8
  0
VERTEX
  5
832
330
824
100
AcDbEntity
  8
ALL
 62
     3
100
AcDbVertex
100
AcDb2dVertex
 10
10.06395648825201
 20
5.940603400837633
 30
0.0
 70
     8
  0
VERTEX
  5
833
330
824
100
AcDbEntity
  8
ALL
 62
     3
100
AcDbVertex
100
AcDb2dVertex
 10
10.06467497095683
 20
5.930321736656845
 30
0.0
 70
     8
  0
VERTEX
  5
834
330
824
100
AcDbEntity
  8
ALL
 62
     3
100
AcDbVertex
100
AcDb2dVertex
 10
10.06487898456441
 20
5.920332947054435
 30
0.0
 70
     8
  0
VERTEX
  5
835
330
824
100
AcDbEntity
  8
ALL
 62
     3
100
AcDbVertex
100
AcDb2dVertex
 10
10.06462175001575
 20
5.910610407135439
 30
0.0
 70
     8
  0
VERTEX
  5
836
330
824
100
AcDbEntity
  8
ALL
 62
     3
100
AcDbVertex
100
AcDb2dVertex
 10
10.06395648825201
 20
5.901127492004905
 30
0.0
 70
     8
  0
VERTEX
  5
837
330
824
100
AcDbEntity
  8
ALL
 62
     3
100
AcDbVertex
100
AcDb2dVertex
 10
10.06292311496872
 20
5.891864972561843
 30
0.0
 70
     8
  0
VERTEX
  5
838
330
824
100
AcDbEntity
  8
ALL
 62
     3
100
AcDbVertex
100
AcDb2dVertex
 10
10.06150832487969
 20
5.882833202881111
 30
0.0
 70
     8
  0
VERTEX
  5
839
330
824
100
AcDbEntity
  8
ALL
 62
     3
100
AcDbVertex
100
AcDb2dVertex
 10
10.05968550745296
 20
5.874049932831506
 30
0.0
 70
     8
  0
VERTEX
  5
83A
330
824
100
AcDbEntity
  8
ALL
 62
     3
100
AcDbVertex
100
AcDb2dVertex
 10
10.05742805215686
 20
5.865532912281845
 30
0.0
 70
     8
  0
VERTEX
  5
83B
330
824
100
AcDbEntity
  8
ALL
 62
     3
100
AcDbVertex
100
AcDb2dVertex
 10
10.05470934845947
 20
5.857299891100953
 30
0.0
 70
     8
  0
VERTEX
  5
83C
330
824
100
AcDbEntity
  8
ALL
 62
     3
100
AcDbVertex
100
AcDb2dVertex
 10
10.05150278582908
 20
5.849368619157625
 30
0.0
 70
     8
  0
VERTEX
  5
83D
330
824
100
AcDbEntity
  8
ALL
 62
     3
100
AcDbVertex
100
AcDb2dVertex
 10
10.04778175373382
 20
5.841756846320687
 30
0.0
 70
     8
  0
VERTEX
  5
83E
330
824
100
AcDbEntity
  8
ALL
 62
     3
100
AcDbVertex
100
AcDb2dVertex
 10
10.04351964164191
 20
5.834482322458934
 30
0.0
 70
     8
  0
VERTEX
  5
83F
330
824
100
AcDbEntity
  8
ALL
 62
     3
100
AcDbVertex
100
AcDb2dVertex
 10
10.03870166591775
 20
5.827546526666959
 30
0.0
 70
     8
  0
VERTEX
  5
840
330
824
100
AcDbEntity
  8
ALL
 62
     3
100
AcDbVertex
100
AcDb2dVertex
 10
10.03336035051062
 20
5.820885854942399
 30
0.0
 70
     8
  0
VERTEX
  5
841
330
824
100
AcDbEntity
  8
ALL
 62
     3
100
AcDbVertex
100
AcDb2dVertex
 10
10.02754004626603
 20
5.81442043250865
 30
0.0
 70
     8
  0
VERTEX
  5
842
330
824
100
AcDbEntity
  8
ALL
 62
     3
100
AcDbVertex
100
AcDb2dVertex
 10
10.02128510402951
 20
5.808070384589124
 30
0.0
 70
     8
  0
VERTEX
  5
843
330
824
100
AcDbEntity
  8
ALL
 62
     3
100
AcDbVertex
100
AcDb2dVertex
 10
10.01463987464657
 20
5.801755836407227
 30
0.0
 70
     8
  0
VERTEX
  5
844
330
824
100
AcDbEntity
  8
ALL
 62
     3
100
AcDbVertex
100
AcDb2dVertex
 10
10.00764870896267
 20
5.795396913186347
 30
0.0
 70
     8
  0
VERTEX
  5
845
330
824
100
AcDbEntity
  8
ALL
 62
     3
100
AcDbVertex
100
AcDb2dVertex
 10
10.00035595782338
 20
5.788913740149911
 30
0.0
 70
     8
  0
VERTEX
  5
846
330
824
100
AcDbEntity
  8
ALL
 62
     3
100
AcDbVertex
100
AcDb2dVertex
 10
9.99280597207416
 20
5.782226442521301
 30
0.0
 70
     8
  0
VERTEX
  5
847
330
824
100
AcDbEntity
  8
ALL
 62
     3
100
AcDbVertex
100
AcDb2dVertex
 10
9.985044580909795
 20
5.775283249620495
 30
0.0
 70
     8
  0
VERTEX
  5
848
330
824
100
AcDbEntity
  8
ALL
 62
     3
100
AcDbVertex
100
AcDb2dVertex
 10
9.977123526922122
 20
5.76814480715367
 30
0.0
 70
     8
  0
VERTEX
  5
849
330
824
100
AcDbEntity
  8
ALL
 62
     3
100
AcDbVertex
100
AcDb2dVertex
 10
9.969096031052282
 20
5.760899864923554
 30
0.0
 70
     8
  0
VERTEX
  5
84A
330
824
100
AcDbEntity
  8
ALL
 62
     3
100
AcDbVertex
100
AcDb2dVertex
 10
9.961015314241302
 20
5.753637172732889
 30
0.0
 70
     8
  0
VERTEX
  5
84B
330
824
100
AcDbEntity
  8
ALL
 62
     3
100
AcDbVertex
100
AcDb2dVertex
 10
9.952934597430322
 20
5.746445480384418
 30
0.0
 70
     8
  0
VERTEX
  5
84C
330
824
100
AcDbEntity
  8
ALL
 62
     3
100
AcDbVertex
100
AcDb2dVertex
 10
9.944907101560483
 20
5.73941353768087
 30
0.0
 70
     8
  0
VERTEX
  5
84D
330
824
100
AcDbEntity
  8
ALL
 62
     3
100
AcDbVertex
100
AcDb2dVertex
 10
9.93698604757281
 20
5.732630094424993
 30
0.0
 70
     8
  0
VERTEX
  5
84E
330
824
100
AcDbEntity
  8
ALL
 62
     3
100
AcDbVertex
100
AcDb2dVertex
 10
9.929224656408445
 20
5.726183900419509
 30
0.0
 70
     8
  0
VERTEX
  5
84F
330
824
100
AcDbEntity
  8
ALL
 62
     3
100
AcDbVertex
100
AcDb2dVertex
 10
9.921665800502404
 20
5.720132643043856
 30
0.0
 70
     8
  0
VERTEX
  5
850
330
824
100
AcDbEntity
  8
ALL
 62
     3
100
AcDbVertex
100
AcDb2dVertex
 10
9.914310958265128
 20
5.714409759984202
 30
0.0
 70
     8
  0
VERTEX
  5
851
330
824
100
AcDbEntity
  8
ALL
 62
     3
100
AcDbVertex
100
AcDb2dVertex
 10
9.907151259601102
 20
5.708917626503388
 30
0.0
 70
     8
  0
VERTEX
  5
852
330
824
100
AcDbEntity
  8
ALL
 62
     3
100
AcDbVertex
100
AcDb2dVertex
 10
9.900177834414671
 20
5.703558617864298
 30
0.0
 70
     8
  0
VERTEX
  5
853
330
824
100
AcDbEntity
  8
ALL
 62
     3
100
AcDbVertex
100
AcDb2dVertex
 10
9.893381812610295
 20
5.69823510932976
 30
0.0
 70
     8
  0
VERTEX
  5
854
330
824
100
AcDbEntity
  8
ALL
 62
     3
100
AcDbVertex
100
AcDb2dVertex
 10
9.886754324092345
 20
5.692849476162652
 30
0.0
 70
     8
  0
VERTEX
  5
855
330
824
100
AcDbEntity
  8
ALL
 62
     3
100
AcDbVertex
100
AcDb2dVertex
 10
9.880286498765253
 20
5.687304093625821
 30
0.0
 70
     8
  0
VERTEX
  5
856
330
824
100
AcDbEntity
  8
ALL
 62
     3
100
AcDbVertex
100
AcDb2dVertex
 10
9.87396946653339
 20
5.681501336982125
 30
0.0
 70
     8
  0
VERTEX
  5
857
330
824
100
AcDbEntity
  8
ALL
 62
     3
100
AcDbVertex
100
AcDb2dVertex
 10
9.867800270708466
 20
5.675358373112923
 30
0.0
 70
     8
  0
VERTEX
  5
858
330
824
100
AcDbEntity
  8
ALL
 62
     3
100
AcDbVertex
100
AcDb2dVertex
 10
9.861799608231246
 20
5.668851535373572
 30
0.0
 70
     8
  0
VERTEX
  5
859
330
824
100
AcDbEntity
  8
ALL
 62
     3
100
AcDbVertex
100
AcDb2dVertex
 10
9.855994089449774
 20
5.661971948737924
 30
0.0
 70
     8
  0
VERTEX
  5
85A
330
824
100
AcDbEntity
  8
ALL
 62
     3
100
AcDbVertex
100
AcDb2dVertex
 10
9.850410324712067
 20
5.654710738179853
 30
0.0
 70
     8
  0
VERTEX
  5
85B
330
824
100
AcDbEntity
  8
ALL
 62
     3
100
AcDbVertex
100
AcDb2dVertex
 10
9.845074924366139
 20
5.647059028673207
 30
0.0
 70
     8
  0
VERTEX
  5
85C
330
824
100
AcDbEntity
  8
ALL
 62
     3
100
AcDbVertex
100
AcDb2dVertex
 10
9.840014498760064
 20
5.639007945191845
 30
0.0
 70
     8
  0
VERTEX
  5
85D
330
824
100
AcDbEntity
  8
ALL
 62
     3
100
AcDbVertex
100
AcDb2dVertex
 10
9.835255658241857
 20
5.630548612709627
 30
0.0
 70
     8
  0
VERTEX
  5
85E
330
824
100
AcDbEntity
  8
ALL
 62
     3
100
AcDbVertex
100
AcDb2dVertex
 10
9.830825013159591
 20
5.621672156200413
 30
0.0
 70
     8
  0
VERTEX
  5
85F
330
824
100
AcDbEntity
  8
ALL
 62
     3
100
AcDbVertex
100
AcDb2dVertex
 10
9.826740303745276
 20
5.612366002741079
 30
0.0
 70
     8
  0
VERTEX
  5
860
330
824
100
AcDbEntity
  8
ALL
 62
     3
100
AcDbVertex
100
AcDb2dVertex
 10
9.822983789766846
 20
5.602602787820582
 30
0.0
 70
     8
  0
VERTEX
  5
861
330
824
100
AcDbEntity
  8
ALL
 62
     3
100
AcDbVertex
100
AcDb2dVertex
 10
9.819528860876284
 20
5.592351449030895
 30
0.0
 70
     8
  0
VERTEX
  5
862
330
824
100
AcDbEntity
  8
ALL
 62
     3
100
AcDbVertex
100
AcDb2dVertex
 10
9.816348906725574
 20
5.581580923964007
 30
0.0
 70
     8
  0
VERTEX
  5
863
330
824
100
AcDbEntity
  8
ALL
 62
     3
100
AcDbVertex
100
AcDb2dVertex
 10
9.813417316966644
 20
5.570260150211875
 30
0.0
 70
     8
  0
VERTEX
  5
864
330
824
100
AcDbEntity
  8
ALL
 62
     3
100
AcDbVertex
100
AcDb2dVertex
 10
9.810707481251535
 20
5.558358065366486
 30
0.0
 70
     8
  0
VERTEX
  5
865
330
824
100
AcDbEntity
  8
ALL
 62
     3
100
AcDbVertex
100
AcDb2dVertex
 10
9.808192789232117
 20
5.545843607019814
 30
0.0
 70
     8
  0
VERTEX
  5
866
330
824
100
AcDbEntity
  8
ALL
 62
     3
100
AcDbVertex
100
AcDb2dVertex
 10
9.805846630560404
 20
5.532685712763831
 30
0.0
 70
     8
  0
VERTEX
  5
867
330
824
100
AcDbEntity
  8
ALL
 62
     3
100
AcDbVertex
100
AcDb2dVertex
 10
9.8036504202505
 20
5.518777709217249
 30
0.0
 70
     8
  0
VERTEX
  5
868
330
824
100
AcDbEntity
  8
ALL
 62
     3
100
AcDbVertex
100
AcDb2dVertex
 10
9.801617674765049
 20
5.503710479105701
 30
0.0
 70
     8
  0
VERTEX
  5
869
330
824
100
AcDbEntity
  8
ALL
 62
     3
100
AcDbVertex
100
AcDb2dVertex
 10
9.799769935928901
 20
5.486999294181546
 30
0.0
 70
     8
  0
VERTEX
  5
86A
330
824
100
AcDbEntity
  8
ALL
 62
     3
100
AcDbVertex
100
AcDb2dVertex
 10
9.798128745566822
 20
5.468159426197156
 30
0.0
 70
     8
  0
VERTEX
  5
86B
330
824
100
AcDbEntity
  8
ALL
 62
     3
100
AcDbVertex
100
AcDb2dVertex
 10
9.796715645503633
 20
5.446706146904896
 30
0.0
 70
     8
  0
VERTEX
  5
86C
330
824
100
AcDbEntity
  8
ALL
 62
     3
100
AcDbVertex
100
AcDb2dVertex
 10
9.795552177564099
 20
5.422154728057132
 30
0.0
 70
     8
  0
VERTEX
  5
86D
330
824
100
AcDbEntity
  8
ALL
 62
     3
100
AcDbVertex
100
AcDb2dVertex
 10
9.794659883573126
 20
5.394020441406229
 30
0.0
 70
     8
  0
VERTEX
  5
86E
330
824
100
AcDbEntity
  8
ALL
 62
     3
100
AcDbVertex
100
AcDb2dVertex
 10
9.794060305355452
 20
5.361818558704544
 30
0.0
 70
     8
  0
VERTEX
  5
86F
330
824
100
AcDbEntity
  8
ALL
 62
     3
100
AcDbVertex
100
AcDb2dVertex
 10
10.02686740574247
 20
6.053351149745732
 30
0.0
 70
    16
  0
VERTEX
  5
870
330
824
100
AcDbEntity
  8
ALL
 62
     3
100
AcDbVertex
100
AcDb2dVertex
 10
10.06319956820078
 20
5.980647311343413
 30
0.0
 70
    16
  0
VERTEX
  5
871
330
824
100
AcDbEntity
  8
ALL
 62
     3
100
AcDbVertex
100
AcDb2dVertex
 10
10.06774108850805
 20
5.898855493140795
 30
0.0
 70
    16
  0
VERTEX
  5
872
330
824
100
AcDbEntity
  8
ALL
 62
     3
100
AcDbVertex
100
AcDb2dVertex
 10
10.04957500727891
 20
5.830695668122852
 30
0.0
 70
    16
  0
VERTEX
  5
873
330
824
100
AcDbEntity
  8
ALL
 62
     3
100
AcDbVertex
100
AcDb2dVertex
 10
9.995076732227795
 20
5.785255769121401
 30
0.0
 70
    16
  0
VERTEX
  5
874
330
824
100
AcDbEntity
  8
ALL
 62
     3
100
AcDbVertex
100
AcDb2dVertex
 10
9.92695389625481
 20
5.721639910519367
 30
0.0
 70
    16
  0
VERTEX
  5
875
330
824
100
AcDbEntity
  8
ALL
 62
     3
100
AcDbVertex
100
AcDb2dVertex
 10
9.872455621203693
 20
5.6852879913182
 30
0.0
 70
    16
  0
VERTEX
  5
876
330
824
100
AcDbEntity
  8
ALL
 62
     3
100
AcDbVertex
100
AcDb2dVertex
 10
9.827040418130815
 20
5.626216146100555
 30
0.0
 70
    16
  0
VERTEX
  5
877
330
824
100
AcDbEntity
  8
ALL
 62
     3
100
AcDbVertex
100
AcDb2dVertex
 10
9.804332785230707
 20
5.539880361482043
 30
0.0
 70
    16
  0
VERTEX
  5
878
330
824
100
AcDbEntity
  8
ALL
 62
     3
100
AcDbVertex
100
AcDb2dVertex
 10
9.795249744616109
 20
5.453544576863524
 30
0.0
 70
    16
  0
VERTEX
  5
879
330
824
100
AcDbEntity
  8
ALL
 62
     3
100
AcDbVertex
100
AcDb2dVertex
 10
9.794060305355452
 20
5.361818558704544
 30
0.0
 70
    16
  0
SEQEND
  5
87A
330
824
100
AcDbEntity
  8
ALL
 62
     3
  0
LINE
  5
87B
330
2
100
AcDbEntity
  8
ALL
 62
     3
100
AcDbLine
 10
10.13781030535545
 20
6.102443558704545
 30
0.0
 11
10.01288645197808
 21
6.098081121616732
 31
0.0
  0
LINE
  5
87C
330
2
100
AcDbEntity
  8
ALL
 62
     3
100
AcDbLine
 10
9.606560305355452
 20
7.986818558704544
 30
0.0
 11
10.23156030535545
 21
7.986818558704544
 31
0.0
  0
LINE
  5
87D
330
2
100
AcDbEntity
  8
ALL
 62
     3
100
AcDbLine
 10
9.606560305355452
 20
7.986818558704544
 30
0.0
 11
9.606560305355452
 21
7.484793034087325
 31
0.0
  0
LINE
  5
87E
330
2
100
AcDbEntity
  8
ALL
 62
     3
100
AcDbLine
 10
9.606560305355452
 20
7.484793034087325
 30
0.0
 11
9.677170165677688
 21
7.412003964992671
 31
0.0
  0
LINE
  5
87F
330
2
100
AcDbEntity
  8
ALL
 62
     3
100
AcDbLine
 10
10.23156030535545
 20
7.986818558704544
 30
0.0
 11
10.23156030535545
 21
7.538342935873644
 31
0.0
  0
ARC
  5
880
330
2
100
AcDbEntity
  8
ALL
 62
     3
100
AcDbCircle
 10
10.23156030535545
 20
7.441881753292357
 30
0.0
 40
0.09375
100
AcDbArc
 50
117.581277450897
 51
180.0
  0
ARC
  5
881
330
2
100
AcDbEntity
  8
ALL
 62
     3
100
AcDbCircle
 10
10.2460292561534
 20
7.4141831619418
 30
0.0
 40
0.125
100
AcDbArc
 50
96.64697844113534
 51
117.581277450897
  0
VIEWPORT
  5
10F
330
7
100
AcDbEntity
 67
     1
  8
0
100
AcDbViewport
 10
7.329044117647058
 20
4.494742024799509
 30
0.0
 40
14.65808823529411
 41
9.0
 68
     1
 69
     1
 12
7.329044117647058
 22
4.494742024799509
 13
0.0
 23
0.0
 14
0.5
 24
0.5
 15
0.5
 25
0.5
 16
0.0
 26
0.0
 36
1.0
 17
0.0
 27
0.0
 37
0.0
 42
50.0
 43
0.0
 44
0.0
 45
9.0
 50
0.0
 51
0.0
 72
   100
 90
    32800
  1

281
     0
 71
     1
 74
     0
110
0.0
120
0.0
130
0.0
111
1.0
121
0.0
131
0.0
112
0.0
122
1.0
132
0.0
 79
     0
146
0.0
  0
ENDSEC
  0
SECTION
  2
OBJECTS
  0
DICTIONARY
  5
1A
330
0
100
AcDbDictionary
281
     1
  3
ACAD_GROUP
350
18
  3
ACAD_IMAGE_DICT
350
1E2
  3
ACAD_IMAGE_VARS
350
1E3
  3
ACAD_LAYOUT
350
16B
  3
ACAD_MLINESTYLE
350
19
  3
ACAD_PLOTSETTINGS
350
16C
  3
ACAD_PLOTSTYLENAME
350
169
  3
AcDbVariableDictionary
350
475
  3
DWGPROPS
350
172
  0
DICTIONARY
  5
18
102
{ACAD_REACTORS
330
1A
102
}
330
1A
100
AcDbDictionary
281
     1
  0
DICTIONARY
  5
1E2
102
{ACAD_REACTORS
330
1A
102
}
330
1A
100
AcDbDictionary
281
     1
  3
darlin
350
1E4
  3
sc
350
3D3
  0
RASTERVARIABLES
  5
1E3
102
{ACAD_REACTORS
330
1A
102
}
330
1A
100
AcDbRasterVariables
 90
        0
 70
     1
 71
     1
 72
     0
  0
DICTIONARY
  5
16B
102
{ACAD_REACTORS
330
1A
102
}
330
1A
100
AcDbDictionary
281
     1
  3
Layout1
350
16E
  3
Model
350
16D
  0
DICTIONARY
  5
19
102
{ACAD_REACTORS
330
1A
102
}
330
1A
100
AcDbDictionary
281
     1
  3
STANDARD
350
1C
  0
DICTIONARY
  5
16C
102
{ACAD_REACTORS
330
1A
102
}
330
1A
100
AcDbDictionary
281
     1
  0
ACDBDICTIONARYWDFLT
  5
169
102
{ACAD_REACTORS
330
1A
102
}
330
1A
100
AcDbDictionary
281
     1
  3
Normal
350
16A
100
AcDbDictionaryWithDefault
340
16A
  0
DICTIONARY
  5
475
102
{ACAD_REACTORS
330
1A
102
}
330
1A
100
AcDbDictionary
281
     1
  3
DIMASSOC
350
476
  0
XRECORD
  5
172
102
{ACAD_REACTORS
330
1A
102
}
330
1A
100
AcDbXrecord
280
     1
  1
DWGPROPS COOKIE
  2

  3

  4

  6

  7

  8
Benson Wood Products
  9

300
=
301
=
302
=
303
=
304
=
305
=
306
=
307
=
308
=
309
=
 40
0.1320853009259259
 41
2451257.51637963
 42
2453236.309322916
  1

 90
        0
  0
IMAGEDEF
  5
1E4
102
{ACAD_REACTORS
330
1E2
102
}
330
1E2
100
AcDbRasterImageDef
 90
        0
  1
C:\AutoCAD 2000i\scans\darlin.bmp
 10
661.0
 20
624.0
 11
0.0846668355628098
 21
0.0846668355628098
280
     1
281
     2
  0
IMAGEDEF
  5
3D3
102
{ACAD_REACTORS
330
1E2
102
}
330
1E2
100
AcDbRasterImageDef
 90
        0
  1
C:\AutoCAD 2000i\scans\sc.bmp
 10
1285.0
 20
1897.0
 11
0.0423334177814049
 21
0.0423334177814049
280
     1
281
     2
  0
LAYOUT
  5
16E
102
{ACAD_REACTORS
330
16B
102
}
330
16B
100
AcDbPlotSettings
  1

  2
\\Bwp-cnc\HP LaserJet 6P
  4

  6

 40
0.0
 41
0.0
 42
0.0
 43
0.0
 44
0.0
 45
0.0
 46
0.0
 47
0.0
 48
0.0
 49
0.0
140
0.0
141
0.0
142
1.0
143
1.0
 70
   688
 72
     0
 73
     0
 74
     5
  7
monochrome.ctb
 75
    16
147
1.0
148
0.0
149
0.0
100
AcDbLayout
  1
Layout1
 70
     1
 71
     1
 10
0.0
 20
0.0
 11
12.0
 21
9.0
 12
0.0
 22
0.0
 32
0.0
 14
1.000000000000000E+20
 24
1.000000000000000E+20
 34
1.000000000000000E+20
 15
-1.000000000000000E+20
 25
-1.000000000000000E+20
 35
-1.000000000000000E+20
146
0.0
 13
0.0
 23
0.0
 33
0.0
 16
1.0
 26
0.0
 36
0.0
 17
0.0
 27
1.0
 37
0.0
 76
     0
330
7
331
10F
  0
LAYOUT
  5
16D
102
{ACAD_REACTORS
330
16B
102
}
330
16B
100
AcDbPlotSettings
  1

  2
PrimoPDF
  4
Letter
  6

 40
3.174999952316284
 41
3.174999952316284
 42
3.175003051757812
 43
3.17498779296875
 44
215.8999938964843
 45
279.3999938964843
 46
86.614
 47
90.93200000000001
 48
9.14801799858513
 49
4.565379412818571
140
10.57972000590019
141
8.162072701214068
142
1.0
143
1.0
 70
 11956
 72
     0
 73
     0
 74
     4
  7
monochrome.ctb
 75
    16
147
1.0
148
-232.3596571640623
149
-115.9606370855917
100
AcDbLayout
  1
Model
 70
     1
 71
     0
 10
0.0
 20
0.0
 11
12.0
 21
9.0
 12
0.0
 22
0.0
 32
0.0
 14
0.0
 24
0.0
 34
0.0
 15
0.0
 25
0.0
 35
0.0
146
0.0
 13
0.0
 23
0.0
 33
0.0
 16
1.0
 26
0.0
 36
0.0
 17
0.0
 27
1.0
 37
0.0
 76
     0
330
2
  0
MLINESTYLE
  5
1C
102
{ACAD_REACTORS
330
19
102
}
330
19
100
AcDbMlineStyle
  2
STANDARD
 70
     0
  3

 62
     0
 51
90.0
 52
90.0
 71
     2
 49
0.5
 62
   256
  6
BYLAYER
 49
-0.5
 62
   256
  6
BYLAYER
  0
ACDBPLACEHOLDER
  5
16A
102
{ACAD_REACTORS
330
169
102
}
330
169
  0
DICTIONARYVAR
  5
476
102
{ACAD_REACTORS
330
475
102
}
330
475
100
DictionaryVariables
280
     0
  1
1
  0
ENDSEC
  0
EOF
