  0
SECTION
  2
HEADER
  9
$ACADVER
  1
AC1015
  9
$ACADMAINTVER
 70
    13
  9
$DWGCODEPAGE
  3
ANSI_1252
  9
$INSBASE
 10
0.0
 20
0.0
 30
0.0
  9
$EXTMIN
 10
10.90081791172365
 20
5.178775572891545
 30
-0.0015258207003583
  9
$EXTMAX
 10
11.8905029574997
 20
10.97195125285209
 30
0.0000000349246037
  9
$LIMMIN
 10
0.0
 20
0.0
  9
$LIMMAX
 10
12.0
 20
9.0
  9
$ORTHOMODE
 70
     0
  9
$REGENMODE
 70
     1
  9
$FILLMODE
 70
     1
  9
$QTEXTMODE
 70
     0
  9
$MIRRTEXT
 70
     1
  9
$LTSCALE
 40
1.0
  9
$ATTMODE
 70
     1
  9
$TEXTSIZE
 40
0.2
  9
$TRACEWID
 40
0.05
  9
$TEXTSTYLE
  7
STANDARD
  9
$CLAYER
  8
PROFILE
  9
$CELTYPE
  6
BYLAYER
  9
$CECOLOR
 62
   256
  9
$CELTSCALE
 40
1.0
  9
$DISPSILH
 70
     0
  9
$DIMSCALE
 40
1.0
  9
$DIMASZ
 40
0.18
  9
$DIMEXO
 40
0.0625
  9
$DIMDLI
 40
0.38
  9
$DIMRND
 40
0.0
  9
$DIMDLE
 40
0.0
  9
$DIMEXE
 40
0.18
  9
$DIMTP
 40
0.0
  9
$DIMTM
 40
0.0
  9
$DIMTXT
 40
0.18
  9
$DIMCEN
 40
0.09
  9
$DIMTSZ
 40
0.0
  9
$DIMTOL
 70
     0
  9
$DIMLIM
 70
     0
  9
$DIMTIH
 70
     1
  9
$DIMTOH
 70
     1
  9
$DIMSE1
 70
     0
  9
$DIMSE2
 70
     0
  9
$DIMTAD
 70
     0
  9
$DIMZIN
 70
     0
  9
$DIMBLK
  1

  9
$DIMASO
 70
     1
  9
$DIMSHO
 70
     1
  9
$DIMPOST
  1

  9
$DIMAPOST
  1

  9
$DIMALT
 70
     0
  9
$DIMALTD
 70
     2
  9
$DIMALTF
 40
25.4
  9
$DIMLFAC
 40
1.0
  9
$DIMTOFL
 70
     0
  9
$DIMTVP
 40
0.0
  9
$DIMTIX
 70
     0
  9
$DIMSOXD
 70
     0
  9
$DIMSAH
 70
     0
  9
$DIMBLK1
  1

  9
$DIMBLK2
  1

  9
$DIMSTYLE
  2
STANDARD_WS
  9
$DIMCLRD
 70
     0
  9
$DIMCLRE
 70
     0
  9
$DIMCLRT
 70
     0
  9
$DIMTFAC
 40
1.0
  9
$DIMGAP
 40
0.09
  9
$DIMJUST
 70
     0
  9
$DIMSD1
 70
     0
  9
$DIMSD2
 70
     0
  9
$DIMTOLJ
 70
     1
  9
$DIMTZIN
 70
     0
  9
$DIMALTZ
 70
     0
  9
$DIMALTTZ
 70
     0
  9
$DIMUPT
 70
     0
  9
$DIMDEC
 70
     4
  9
$DIMTDEC
 70
     4
  9
$DIMALTU
 70
     2
  9
$DIMALTTD
 70
     2
  9
$DIMTXSTY
  7
STANDARD
  9
$DIMAUNIT
 70
     0
  9
$DIMADEC
 70
     3
  9
$DIMALTRND
 40
0.0
  9
$DIMAZIN
 70
     0
  9
$DIMDSEP
 70
    46
  9
$DIMATFIT
 70
     3
  9
$DIMFRAC
 70
     0
  9
$DIMLDRBLK
  1

  9
$DIMLUNIT
 70
     2
  9
$DIMLWD
 70
    -2
  9
$DIMLWE
 70
    -2
  9
$DIMTMOVE
 70
     0
  9
$LUNITS
 70
     2
  9
$LUPREC
 70
     4
  9
$SKETCHINC
 40
0.1
  9
$FILLETRAD
 40
0.0
  9
$AUNITS
 70
     0
  9
$AUPREC
 70
     4
  9
$MENU
  1
.
  9
$ELEVATION
 40
0.0
  9
$PELEVATION
 40
0.0
  9
$THICKNESS
 40
0.0
  9
$LIMCHECK
 70
     0
  9
$CHAMFERA
 40
0.5
  9
$CHAMFERB
 40
0.5
  9
$CHAMFERC
 40
1.0
  9
$CHAMFERD
 40
0.0
  9
$SKPOLY
 70
     1
  9
$TDCREATE
 40
2451257.516379630
  9
$TDUCREATE
 40
2451257.724712962
  9
$TDUPDATE
 40
2454949.404906527
  9
$TDUUPDATE
 40
2454949.613239861
  9
$TDINDWG
 40
5.0495500926
  9
$TDUSRTIMER
 40
5.0495500926
  9
$USRTIMER
 70
     1
  9
$ANGBASE
 50
0.0
  9
$ANGDIR
 70
     0
  9
$PDMODE
 70
     0
  9
$PDSIZE
 40
0.0
  9
$PLINEWID
 40
0.0
  9
$SPLFRAME
 70
     0
  9
$SPLINETYPE
 70
     6
  9
$SPLINESEGS
 70
     8
  9
$HANDSEED
  5
8A8
  9
$SURFTAB1
 70
     6
  9
$SURFTAB2
 70
     6
  9
$SURFTYPE
 70
     6
  9
$SURFU
 70
     6
  9
$SURFV
 70
     6
  9
$UCSBASE
  2

  9
$UCSNAME
  2

  9
$UCSORG
 10
0.0
 20
0.0
 30
0.0
  9
$UCSXDIR
 10
1.0
 20
0.0
 30
0.0
  9
$UCSYDIR
 10
0.0
 20
1.0
 30
0.0
  9
$UCSORTHOREF
  2

  9
$UCSORTHOVIEW
 70
     0
  9
$UCSORGTOP
 10
0.0
 20
0.0
 30
0.0
  9
$UCSORGBOTTOM
 10
0.0
 20
0.0
 30
0.0
  9
$UCSORGLEFT
 10
0.0
 20
0.0
 30
0.0
  9
$UCSORGRIGHT
 10
0.0
 20
0.0
 30
0.0
  9
$UCSORGFRONT
 10
0.0
 20
0.0
 30
0.0
  9
$UCSORGBACK
 10
0.0
 20
0.0
 30
0.0
  9
$PUCSBASE
  2

  9
$PUCSNAME
  2

  9
$PUCSORG
 10
0.0
 20
0.0
 30
0.0
  9
$PUCSXDIR
 10
1.0
 20
0.0
 30
0.0
  9
$PUCSYDIR
 10
0.0
 20
1.0
 30
0.0
  9
$PUCSORTHOREF
  2

  9
$PUCSORTHOVIEW
 70
     0
  9
$PUCSORGTOP
 10
0.0
 20
0.0
 30
0.0
  9
$PUCSORGBOTTOM
 10
0.0
 20
0.0
 30
0.0
  9
$PUCSORGLEFT
 10
0.0
 20
0.0
 30
0.0
  9
$PUCSORGRIGHT
 10
0.0
 20
0.0
 30
0.0
  9
$PUCSORGFRONT
 10
0.0
 20
0.0
 30
0.0
  9
$PUCSORGBACK
 10
0.0
 20
0.0
 30
0.0
  9
$USERI1
 70
     0
  9
$USERI2
 70
     0
  9
$USERI3
 70
     0
  9
$USERI4
 70
     0
  9
$USERI5
 70
     0
  9
$USERR1
 40
0.0
  9
$USERR2
 40
0.0
  9
$USERR3
 40
0.0
  9
$USERR4
 40
0.0
  9
$USERR5
 40
0.0
  9
$WORLDVIEW
 70
     1
  9
$SHADEDGE
 70
     3
  9
$SHADEDIF
 70
    70
  9
$TILEMODE
 70
     1
  9
$MAXACTVP
 70
    48
  9
$PINSBASE
 10
0.0
 20
0.0
 30
0.0
  9
$PLIMCHECK
 70
     0
  9
$PEXTMIN
 10
1.000000000000000E+20
 20
1.000000000000000E+20
 30
1.000000000000000E+20
  9
$PEXTMAX
 10
-1.000000000000000E+20
 20
-1.000000000000000E+20
 30
-1.000000000000000E+20
  9
$PLIMMIN
 10
0.0
 20
0.0
  9
$PLIMMAX
 10
12.0
 20
9.0
  9
$UNITMODE
 70
     0
  9
$VISRETAIN
 70
     0
  9
$PLINEGEN
 70
     0
  9
$PSLTSCALE
 70
     1
  9
$TREEDEPTH
 70
  3020
  9
$CMLSTYLE
  2
STANDARD
  9
$CMLJUST
 70
     0
  9
$CMLSCALE
 40
1.0
  9
$PROXYGRAPHICS
 70
     1
  9
$MEASUREMENT
 70
     0
  9
$CELWEIGHT
370
    -1
  9
$ENDCAPS
280
     0
  9
$JOINSTYLE
280
     0
  9
$LWDISPLAY
290
     0
  9
$INSUNITS
 70
     0
  9
$HYPERLINKBASE
  1

  9
$STYLESHEET
  1
monochrome.ctb
  9
$XEDIT
290
     1
  9
$CEPSNTYPE
380
     0
  9
$PSTYLEMODE
290
     1
  9
$FINGERPRINTGUID
  2
{89108230-6C88-44B9-880F-278BAA3B4DED}
  9
$VERSIONGUID
  2
{1E6C7CE0-FA39-4602-A2EE-7DDCF4832CF7}
  9
$EXTNAMES
290
     1
  9
$PSVPSCALE
 40
0.0
  9
$OLESTARTUP
290
     0
  0
ENDSEC
  0
SECTION
  2
CLASSES
  0
CLASS
  1
DICTIONARYVAR
  2
AcDbDictionaryVar
  3
AutoCAD 2000
 90
        0
280
     0
281
     0
  0
CLASS
  1
ACDBDICTIONARYWDFLT
  2
AcDbDictionaryWithDefault
  3
AutoCAD 2000
 90
        0
280
     0
281
     0
  0
CLASS
  1
ACDBPLACEHOLDER
  2
AcDbPlaceHolder
  3
AutoCAD 2000
 90
        0
280
     0
281
     0
  0
CLASS
  1
LAYOUT
  2
AcDbLayout
  3
AutoCAD 2000
 90
        0
280
     0
281
     0
  0
CLASS
  1
RASTERVARIABLES
  2
AcDbRasterVariables
  3
ISM
 90
        0
280
     0
281
     0
  0
CLASS
  1
IMAGEDEF
  2
AcDbRasterImageDef
  3
ISM
 90
        0
280
     0
281
     0
  0
CLASS
  1
IMAGEDEF_REACTOR
  2
AcDbRasterImageDefReactor
  3
ISM
 90
    32769
280
     0
281
     0
  0
CLASS
  1
IMAGE
  2
AcDbRasterImage
  3
ISM
 90
    32895
280
     0
281
     1
  0
ENDSEC
  0
SECTION
  2
TABLES
  0
TABLE
  2
VPORT
  5
12
330
0
100
AcDbSymbolTable
 70
     4
  0
VPORT
  5
8A7
330
12
100
AcDbSymbolTableRecord
100
AcDbViewportTableRecord
  2
*Active
 70
     0
 10
0.0
 20
0.0
 11
1.0
 21
1.0
 12
13.32738448618175
 22
8.072697459365402
 13
0.0
 23
0.0
 14
0.5
 24
0.5
 15
0.5
 25
0.5
 16
0.0
 26
0.0
 36
1.0
 17
0.0
 27
0.0
 37
0.0
 40
7.245985938532662
 41
2.05015197568389
 42
50.0
 43
0.0
 44
0.0
 50
0.0
 51
0.0
 71
     0
 72
   100
 73
     1
 74
     1
 75
     0
 76
     0
 77
     0
 78
     0
281
     0
 65
     1
110
0.0
120
0.0
130
0.0
111
1.0
121
0.0
131
0.0
112
0.0
122
1.0
132
0.0
 79
     0
146
0.0
  0
ENDTAB
  0
TABLE
  2
LTYPE
  5
D
330
0
100
AcDbSymbolTable
 70
     1
  0
LTYPE
  5
E
330
D
100
AcDbSymbolTableRecord
100
AcDbLinetypeTableRecord
  2
BYBLOCK
 70
     0
  3

 72
    65
 73
     0
 40
0.0
  0
LTYPE
  5
F
330
D
100
AcDbSymbolTableRecord
100
AcDbLinetypeTableRecord
  2
BYLAYER
 70
     0
  3

 72
    65
 73
     0
 40
0.0
  0
LTYPE
  5
5
330
D
100
AcDbSymbolTableRecord
100
AcDbLinetypeTableRecord
  2
CONTINUOUS
 70
     0
  3
Solid line
 72
    65
 73
     0
 40
0.0
  0
ENDTAB
  0
TABLE
  2
LAYER
  5
A
330
0
100
AcDbSymbolTable
 70
     6
  0
LAYER
  5
4
330
A
100
AcDbSymbolTableRecord
100
AcDbLayerTableRecord
  2
0
 70
     0
 62
     7
  6
CONTINUOUS
370
    -3
390
16A
  0
LAYER
  5
1F
330
A
100
AcDbSymbolTableRecord
100
AcDbLayerTableRecord
  2
PROFILE
 70
     0
 62
     3
  6
CONTINUOUS
370
    -3
390
16A
  0
LAYER
  5
1B
330
A
100
AcDbSymbolTableRecord
100
AcDbLayerTableRecord
  2
DEFPOINTS
 70
     0
 62
     7
  6
CONTINUOUS
290
     0
370
    -3
390
16A
  0
LAYER
  5
27
330
A
100
AcDbSymbolTableRecord
100
AcDbLayerTableRecord
  2
TEXT
 70
     0
 62
     5
  6
CONTINUOUS
370
    -3
390
16A
  0
LAYER
  5
28
330
A
100
AcDbSymbolTableRecord
100
AcDbLayerTableRecord
  2
DIMENSION
 70
     0
 62
     1
  6
CONTINUOUS
370
    -3
390
16A
  0
LAYER
  5
750
330
A
100
AcDbSymbolTableRecord
100
AcDbLayerTableRecord
  2
ALL
 70
     0
 62
     7
  6
CONTINUOUS
370
    -3
390
16A
  0
ENDTAB
  0
TABLE
  2
STYLE
  5
B
330
0
100
AcDbSymbolTable
 70
     3
  0
STYLE
  5
C
330
B
100
AcDbSymbolTableRecord
100
AcDbTextStyleTableRecord
  2
STANDARD
 70
     0
 40
0.0
 41
1.0
 50
0.0
 71
     0
 42
0.2
  3
txt
  4

  0
STYLE
  5
751
330
B
100
AcDbSymbolTableRecord
100
AcDbTextStyleTableRecord
  2
PANROMAN
 70
     0
 40
0.25
 41
1.25
 50
10.0
 71
     0
 42
0.25
  3
par_____.pfb
  4

  0
STYLE
  5
752
330
B
100
AcDbSymbolTableRecord
100
AcDbTextStyleTableRecord
  2
TEST
 70
     0
 40
0.0
 41
1.0
 50
0.0
 71
     0
 42
0.25
  3
ROMANC.SHX
  4

  0
ENDTAB
  0
TABLE
  2
VIEW
  5
10
330
0
100
AcDbSymbolTable
 70
     0
  0
ENDTAB
  0
TABLE
  2
UCS
  5
11
330
0
100
AcDbSymbolTable
 70
     0
  0
ENDTAB
  0
TABLE
  2
APPID
  5
14
330
0
100
AcDbSymbolTable
 70
     2
  0
APPID
  5
15
330
14
100
AcDbSymbolTableRecord
100
AcDbRegAppTableRecord
  2
ACAD
 70
     0
  0
APPID
  5
171
330
14
100
AcDbSymbolTableRecord
100
AcDbRegAppTableRecord
  2
NCPOLARIS_BASE
 70
     0
  0
ENDTAB
  0
TABLE
  2
DIMSTYLE
  5
16
330
0
100
AcDbSymbolTable
 70
     2
100
AcDbDimStyleTable
 71
     1
340
1D
  0
DIMSTYLE
105
1D
330
16
100
AcDbSymbolTableRecord
100
AcDbDimStyleTableRecord
  2
STANDARD_WS
 70
     0
179
     3
340
C
  0
DIMSTYLE
105
39
330
16
100
AcDbSymbolTableRecord
100
AcDbDimStyleTableRecord
  2
STANDARD
 70
     0
340
C
  0
ENDTAB
  0
TABLE
  2
BLOCK_RECORD
  5
1
330
0
100
AcDbSymbolTable
 70
     5
  0
BLOCK_RECORD
  5
2
330
1
100
AcDbSymbolTableRecord
100
AcDbBlockTableRecord
  2
*MODEL_SPACE
340
16D
  0
BLOCK_RECORD
  5
7
330
1
100
AcDbSymbolTableRecord
100
AcDbBlockTableRecord
  2
*PAPER_SPACE
340
16E
  0
BLOCK_RECORD
  5
3A
330
1
100
AcDbSymbolTableRecord
100
AcDbBlockTableRecord
  2
F
340
0
  0
BLOCK_RECORD
  5
8E
330
1
100
AcDbSymbolTableRecord
100
AcDbBlockTableRecord
  2
D
340
0
  0
BLOCK_RECORD
  5
AC
330
1
100
AcDbSymbolTableRecord
100
AcDbBlockTableRecord
  2
CCCROWN
340
0
  0
BLOCK_RECORD
  5
5B6
330
1
100
AcDbSymbolTableRecord
100
AcDbBlockTableRecord
  2
track
340
0
  0
ENDTAB
  0
ENDSEC
  0
SECTION
  2
BLOCKS
  0
BLOCK
  5
3
330
2
100
AcDbEntity
  8
0
100
AcDbBlockBegin
  2
*MODEL_SPACE
 70
     0
 10
0.0
 20
0.0
 30
0.0
  3
*MODEL_SPACE
  1

  0
ENDBLK
  5
6
330
2
100
AcDbEntity
  8
0
100
AcDbBlockEnd
  0
BLOCK
  5
8
330
7
100
AcDbEntity
 67
     1
  8
0
100
AcDbBlockBegin
  2
*PAPER_SPACE
 70
     0
 10
0.0
 20
0.0
 30
0.0
  3
*PAPER_SPACE
  1

  0
ENDBLK
  5
9
330
7
100
AcDbEntity
 67
     1
  8
0
100
AcDbBlockEnd
  0
BLOCK
  5
46
330
3A
100
AcDbEntity
  8
0
100
AcDbBlockBegin
  2
F
 70
     0
 10
0.0
 20
0.0
 30
0.0
  3
F
  1

  0
CIRCLE
  5
3B
330
3A
100
AcDbEntity
  8
0
 62
     7
100
AcDbCircle
 10
0.0410665214247617
 20
-0.016701615976765
 30
0.0
 40
0.0183435
  0
CIRCLE
  5
3C
330
3A
100
AcDbEntity
  8
0
 62
     7
100
AcDbCircle
 10
0.0068044214247617
 20
-0.000720415976765
 30
0.0
 40
0.0194689
  0
CIRCLE
  5
3D
330
3A
100
AcDbEntity
  8
0
 62
     7
100
AcDbCircle
 10
0.0369728214247617
 20
-0.013878215976765
 30
0.0
 40
0.0139466
  0
CIRCLE
  5
3E
330
3A
100
AcDbEntity
  8
0
 62
     7
100
AcDbCircle
 10
0.1138706214247617
 20
0.0152964840232351
 30
0.0
 40
0.0058588
  0
LINE
  5
3F
330
3A
100
AcDbEntity
  8
0
 62
     7
100
AcDbLine
 10
0.1550692214247617
 20
-0.023509915976765
 30
0.0
 11
0.1179283214247617
 21
-0.024196615976765
 31
0.0
  0
LINE
  5
40
330
3A
100
AcDbEntity
  8
0
 62
     7
100
AcDbLine
 10
0.0092153214247617
 20
-0.029690015976765
 30
0.0
 11
0.0457186214247617
 21
-0.028454015976765
 31
0.0
  0
LINE
  5
41
330
3A
100
AcDbEntity
  8
0
 62
     7
100
AcDbLine
 10
0.0088965214247617
 20
-0.020076515976765
 30
0.0
 11
0.0092153214247617
 21
-0.029690015976765
 31
0.0
  0
LINE
  5
42
330
3A
100
AcDbEntity
  8
0
 62
     7
100
AcDbLine
 10
0.0353574214247617
 20
-0.000025415976765
 30
0.0
 11
0.0355168214247617
 21
0.009313484023235
 31
0.0
  0
LINE
  5
43
330
3A
100
AcDbEntity
  8
0
 62
     7
100
AcDbLine
 10
0.1196817214247617
 20
0.0160428840232351
 30
0.0
 11
0.1550692214247617
 21
0.0165922840232351
 31
0.0
  0
LINE
  5
44
330
3A
100
AcDbEntity
  8
0
 62
     7
100
AcDbLine
 10
0.1537940214247617
 20
-0.023235215976765
 30
0.0
 11
0.1526782214247617
 21
0.0172789840232351
 31
0.0
  0
LINE
  5
45
330
3A
100
AcDbEntity
  8
0
 62
     7
100
AcDbLine
 10
0.1142620214247617
 20
0.009450784023235
 30
0.0
 11
0.0363138214247617
 21
0.005193384023235
 31
0.0
  0
ENDBLK
  5
47
330
3A
100
AcDbEntity
  8
0
100
AcDbBlockEnd
  0
BLOCK
  5
9B
330
8E
100
AcDbEntity
  8
0
100
AcDbBlockBegin
  2
D
 70
     0
 10
0.0
 20
0.0
 30
0.0
  3
D
  1

  0
CIRCLE
  5
8F
330
8E
100
AcDbEntity
  8
0
 62
     7
100
AcDbCircle
 10
-0.1168512632442014
 20
0.0286128993414634
 30
0.0
 40
0.0184624
  0
CIRCLE
  5
90
330
8E
100
AcDbEntity
  8
0
 62
     7
100
AcDbCircle
 10
-0.1124979632442014
 20
0.0309464993414634
 30
0.0
 40
0.0254615
  0
CIRCLE
  5
91
330
8E
100
AcDbEntity
  8
0
 62
     7
100
AcDbCircle
 10
-0.1098053632442014
 20
0.0273971993414634
 30
0.0
 40
0.0219833
  0
LINE
  5
92
330
8E
100
AcDbEntity
  8
0
 62
     7
100
AcDbLine
 10
-0.1130932632442014
 20
0.0708659993414634
 30
0.0
 11
-0.1446799632442014
 21
0.0404778993414634
 31
0.0
  0
LINE
  5
93
330
8E
100
AcDbEntity
  8
0
 62
     7
100
AcDbLine
 10
-0.1297586632442014
 20
0.0418136993414634
 30
0.0
 11
-0.1400291632442014
 21
0.0504959993414634
 31
0.0
  0
LINE
  5
94
330
8E
100
AcDbEntity
  8
0
 62
     7
100
AcDbLine
 10
-0.1082487632442014
 20
0.0710328993414634
 30
0.0
 11
-0.0784060632442014
 21
0.0398100993414634
 31
0.0
  0
LINE
  5
95
330
8E
100
AcDbEntity
  8
0
 62
     7
100
AcDbLine
 10
-0.0920669632442015
 20
0.0403824993414634
 30
0.0
 11
-0.0844133632442015
 21
0.0478244993414634
 31
0.0
  0
LINE
  5
96
330
8E
100
AcDbEntity
  8
0
 62
     7
100
AcDbLine
 10
-0.0178829632442014
 20
0.0352731993414634
 30
0.0
 11
-0.0253094632442014
 21
0.0404778993414634
 31
0.0
  0
CIRCLE
  5
97
330
8E
100
AcDbEntity
  8
0
 62
     7
100
AcDbCircle
 10
-0.0019354632442014
 20
0.0279654993414634
 30
0.0
 40
0.0175421
  0
LINE
  5
98
330
8E
100
AcDbEntity
  8
0
 62
     7
100
AcDbLine
 10
-0.0253094632442014
 20
0.0404778993414634
 30
0.0
 11
-0.0074813632442014
 21
0.0643541993414634
 31
0.0
  0
LINE
  5
99
330
8E
100
AcDbEntity
  8
0
 62
     7
100
AcDbLine
 10
0.0161602367557986
 20
0.0461547993414634
 30
0.0
 11
-0.0074813632442014
 21
0.0643541993414634
 31
0.0
  0
LINE
  5
9A
330
8E
100
AcDbEntity
  8
0
 62
     7
100
AcDbLine
 10
0.0108860367557986
 20
0.0399377993414634
 30
0.0
 11
0.0161602367557986
 21
0.0461547993414634
 31
0.0
  0
ENDBLK
  5
9C
330
8E
100
AcDbEntity
  8
0
100
AcDbBlockEnd
  0
BLOCK
  5
BC
330
AC
100
AcDbEntity
  8
0
100
AcDbBlockBegin
  2
CCCROWN
 70
     0
 10
0.0
 20
0.0
 30
0.0
  3
CCCROWN
  1

  0
CIRCLE
  5
AD
330
AC
100
AcDbEntity
  8
0
 62
     7
100
AcDbCircle
 10
1.453151451829637
 20
0.6765280889605166
 30
0.0
 40
1.344812
  0
LINE
  5
AE
330
AC
100
AcDbEntity
  8
0
 62
     7
100
AcDbLine
 10
0.8618244518296375
 20
0.5174780889605167
 30
0.0
 11
0.8767584518296375
 21
-0.6765521110394835
 31
0.0
  0
LINE
  5
AF
330
AC
100
AcDbEntity
  8
0
 62
     7
100
AcDbLine
 10
0.2226365518296377
 20
0.5174780889605167
 30
0.0
 11
0.2226365518296377
 21
0.1609270889605165
 31
0.0
  0
CIRCLE
  5
B0
330
AC
100
AcDbEntity
  8
0
 62
     7
100
AcDbCircle
 10
0.0027955518296377
 20
-0.7486109110394834
 30
0.0
 40
0.6896503000000001
  0
CIRCLE
  5
B1
330
AC
100
AcDbEntity
  8
0
 62
     7
100
AcDbCircle
 10
0.4295939518296377
 20
0.0154420889605165
 30
0.0
 40
0.1281395
  0
LINE
  5
B2
330
AC
100
AcDbEntity
  8
0
 62
     7
100
AcDbLine
 10
0.2315971518296377
 20
0.1443430889605164
 30
0.0
 11
0.2584788518296377
 21
0.1388150889605166
 31
0.0
  0
LINE
  5
B3
330
AC
100
AcDbEntity
  8
0
 62
     7
100
AcDbLine
 10
0.2226365518296377
 20
0.1609270889605165
 30
0.0
 11
0.2315971518296377
 21
0.1443430889605164
 31
0.0
  0
LINE
  5
B4
330
AC
100
AcDbEntity
  8
0
 62
     7
100
AcDbLine
 10
0.2823736518296376
 20
0.1360510889605164
 30
0.0
 11
0.3480845518296377
 21
0.1305240889605166
 31
0.0
  0
LINE
  5
B5
330
AC
100
AcDbEntity
  8
0
 62
     7
100
AcDbLine
 10
0.2584788518296377
 20
0.1388150889605166
 30
0.0
 11
0.2823736518296376
 21
0.1360510889605164
 31
0.0
  0
LINE
  5
B6
330
AC
100
AcDbEntity
  8
0
 62
     7
100
AcDbLine
 10
0.3480845518296377
 20
0.1305240889605166
 30
0.0
 11
0.3510714518296377
 21
0.1167040889605164
 31
0.0
  0
LINE
  5
B7
330
AC
100
AcDbEntity
  8
0
 62
     7
100
AcDbLine
 10
0.8767584518296375
 20
-0.6765521110394835
 30
0.0
 11
0.7304024518296377
 21
-0.6793160110394835
 31
0.0
  0
LINE
  5
B8
330
AC
100
AcDbEntity
  8
0
 62
     7
100
AcDbLine
 10
0.6855994518296377
 20
-0.6572044110394835
 30
0.0
 11
0.6885863518296378
 21
-0.6378567110394835
 31
0.0
  0
LINE
  5
B9
330
AC
100
AcDbEntity
  8
0
 62
     7
100
AcDbLine
 10
0.7304024518296377
 20
-0.6793160110394835
 30
0.0
 11
0.7065074518296378
 21
-0.6737881110394835
 31
0.0
  0
LINE
  5
BA
330
AC
100
AcDbEntity
  8
0
 62
     7
100
AcDbLine
 10
0.7065074518296378
 20
-0.6737881110394835
 30
0.0
 11
0.6855994518296377
 21
-0.6572044110394835
 31
0.0
  0
LINE
  5
BB
330
AC
100
AcDbEntity
  8
0
 62
     7
100
AcDbLine
 10
0.2226365518296377
 20
0.5174780889605167
 30
0.0
 11
0.8618244518296375
 21
0.5174780889605167
 31
0.0
  0
ENDBLK
  5
BD
330
AC
100
AcDbEntity
  8
0
100
AcDbBlockEnd
  0
BLOCK
  5
5C3
330
5B6
100
AcDbEntity
  8
0
100
AcDbBlockBegin
  2
track
 70
     0
 10
0.0
 20
0.0
 30
0.0
  3
track
  1

  0
LINE
  5
5B7
330
5B6
100
AcDbEntity
  8
PROFILE
100
AcDbLine
 10
16.53207238374206
 20
4.044320932551642
 30
0.0
 11
16.53207238374207
 21
5.014320932551641
 31
0.0
  0
LINE
  5
5B8
330
5B6
100
AcDbEntity
  8
PROFILE
100
AcDbLine
 10
15.60207238374206
 20
4.044320932551642
 30
0.0
 11
15.60207238374206
 21
5.014320932551641
 31
0.0
  0
LINE
  5
5B9
330
5B6
100
AcDbEntity
  8
PROFILE
100
AcDbLine
 10
15.47707238374207
 20
3.919320932551641
 30
0.0
 11
15.47707238374206
 21
5.13932093255164
 31
0.0
  0
LINE
  5
5BA
330
5B6
100
AcDbEntity
  8
PROFILE
100
AcDbLine
 10
16.65707238374206
 20
3.919320932551642
 30
0.0
 11
16.65707238374206
 21
5.13932093255164
 31
0.0
  0
LINE
  5
5BB
330
5B6
100
AcDbEntity
  8
PROFILE
100
AcDbLine
 10
15.60207238374206
 20
4.044320932551642
 30
0.0
 11
15.81707238374206
 21
4.044320932551641
 31
0.0
  0
LINE
  5
5BC
330
5B6
100
AcDbEntity
  8
PROFILE
100
AcDbLine
 10
15.47707238374207
 20
3.919320932551641
 30
0.0
 11
15.81707238374206
 21
3.919320932551641
 31
0.0
  0
LINE
  5
5BD
330
5B6
100
AcDbEntity
  8
PROFILE
100
AcDbLine
 10
15.81707238374207
 20
3.919320932551642
 30
0.0
 11
15.81707238374206
 21
4.044320932551641
 31
0.0
  0
LINE
  5
5BE
330
5B6
100
AcDbEntity
  8
PROFILE
100
AcDbLine
 10
16.31707238374207
 20
3.919320932551641
 30
0.0
 11
16.65707238374206
 21
3.919320932551642
 31
0.0
  0
LINE
  5
5BF
330
5B6
100
AcDbEntity
  8
PROFILE
100
AcDbLine
 10
16.31707238374207
 20
3.919320932551642
 30
0.0
 11
16.31707238374206
 21
4.04432093255164
 31
0.0
  0
LINE
  5
5C0
330
5B6
100
AcDbEntity
  8
PROFILE
100
AcDbLine
 10
16.31707238374206
 20
4.04432093255164
 30
0.0
 11
16.53207238374206
 21
4.044320932551642
 31
0.0
  0
LINE
  5
5C1
330
5B6
100
AcDbEntity
  8
PROFILE
100
AcDbLine
 10
15.60207238374206
 20
5.014320932551641
 30
0.0
 11
16.53207238374207
 21
5.014320932551641
 31
0.0
  0
LINE
  5
5C2
330
5B6
100
AcDbEntity
  8
PROFILE
100
AcDbLine
 10
15.47707238374206
 20
5.13932093255164
 30
0.0
 11
16.65707238374206
 21
5.13932093255164
 31
0.0
  0
ENDBLK
  5
5C4
330
5B6
100
AcDbEntity
  8
0
100
AcDbBlockEnd
  0
ENDSEC
  0
SECTION
  2
ENTITIES
  0
POLYLINE
  5
845
330
2
100
AcDbEntity
  8
0
 62
     3
100
AcDb2dPolyline
 66
     1
 10
0.0
 20
0.0
 30
0.0
 70
     4
 75
     6
  0
VERTEX
  5
846
330
845
100
AcDbEntity
  8
0
 62
     3
100
AcDbVertex
100
AcDb2dVertex
 10
11.11999782823937
 20
10.97128801271095
 30
0.0
 70
    16
  0
VERTEX
  5
847
330
845
100
AcDbEntity
  8
0
 62
     3
100
AcDbVertex
100
AcDb2dVertex
 10
11.11999782823937
 20
10.97128801271095
 30
0.0
 70
     8
  0
VERTEX
  5
848
330
845
100
AcDbEntity
  8
0
 62
     3
100
AcDbVertex
100
AcDb2dVertex
 10
11.12545448910179
 20
10.92655410376131
 30
0.0
 70
     8
  0
VERTEX
  5
849
330
845
100
AcDbEntity
  8
0
 62
     3
100
AcDbVertex
100
AcDb2dVertex
 10
11.13110527777024
 20
10.88471912798345
 30
0.0
 70
     8
  0
VERTEX
  5
84A
330
845
100
AcDbEntity
  8
0
 62
     3
100
AcDbVertex
100
AcDb2dVertex
 10
11.13699561492467
 20
10.84563343988028
 30
0.0
 70
     8
  0
VERTEX
  5
84B
330
845
100
AcDbEntity
  8
0
 62
     3
100
AcDbVertex
100
AcDb2dVertex
 10
11.14317092124497
 20
10.80914739395475
 30
0.0
 70
     8
  0
VERTEX
  5
84C
330
845
100
AcDbEntity
  8
0
 62
     3
100
AcDbVertex
100
AcDb2dVertex
 10
11.1496766174111
 20
10.77511134470976
 30
0.0
 70
     8
  0
VERTEX
  5
84D
330
845
100
AcDbEntity
  8
0
 62
     3
100
AcDbVertex
100
AcDb2dVertex
 10
11.15655812410298
 20
10.74337564664823
 30
0.0
 70
     8
  0
VERTEX
  5
84E
330
845
100
AcDbEntity
  8
0
 62
     3
100
AcDbVertex
100
AcDb2dVertex
 10
11.16386086200051
 20
10.7137906542731
 30
0.0
 70
     8
  0
VERTEX
  5
84F
330
845
100
AcDbEntity
  8
0
 62
     3
100
AcDbVertex
100
AcDb2dVertex
 10
11.17163025178365
 20
10.68620672208728
 30
0.0
 70
     8
  0
VERTEX
  5
850
330
845
100
AcDbEntity
  8
0
 62
     3
100
AcDbVertex
100
AcDb2dVertex
 10
11.17991546551607
 20
10.66047149805009
 30
0.0
 70
     8
  0
VERTEX
  5
851
330
845
100
AcDbEntity
  8
0
 62
     3
100
AcDbVertex
100
AcDb2dVertex
 10
11.18878068079644
 20
10.63642180394654
 30
0.0
 70
     8
  0
VERTEX
  5
852
330
845
100
AcDbEntity
  8
0
 62
     3
100
AcDbVertex
100
AcDb2dVertex
 10
11.19829382660719
 20
10.61389175501801
 30
0.0
 70
     8
  0
VERTEX
  5
853
330
845
100
AcDbEntity
  8
0
 62
     3
100
AcDbVertex
100
AcDb2dVertex
 10
11.20852283193076
 20
10.59271546650585
 30
0.0
 70
     8
  0
VERTEX
  5
854
330
845
100
AcDbEntity
  8
0
 62
     3
100
AcDbVertex
100
AcDb2dVertex
 10
11.21953562574958
 20
10.57272705365151
 30
0.0
 70
     8
  0
VERTEX
  5
855
330
845
100
AcDbEntity
  8
0
 62
     3
100
AcDbVertex
100
AcDb2dVertex
 10
11.2314001370461
 20
10.55376063169634
 30
0.0
 70
     8
  0
VERTEX
  5
856
330
845
100
AcDbEntity
  8
0
 62
     3
100
AcDbVertex
100
AcDb2dVertex
 10
11.24418429480277
 20
10.53565031588174
 30
0.0
 70
     8
  0
VERTEX
  5
857
330
845
100
AcDbEntity
  8
0
 62
     3
100
AcDbVertex
100
AcDb2dVertex
 10
11.25795602800198
 20
10.51823022144909
 30
0.0
 70
     8
  0
VERTEX
  5
858
330
845
100
AcDbEntity
  8
0
 62
     3
100
AcDbVertex
100
AcDb2dVertex
 10
11.27274253215526
 20
10.50136829588283
 30
0.0
 70
     8
  0
VERTEX
  5
859
330
845
100
AcDbEntity
  8
0
 62
     3
100
AcDbVertex
100
AcDb2dVertex
 10
11.28840806889016
 20
10.48506781563946
 30
0.0
 70
     8
  0
VERTEX
  5
85A
330
845
100
AcDbEntity
  8
0
 62
     3
100
AcDbVertex
100
AcDb2dVertex
 10
11.30477616636341
 20
10.46936588941856
 30
0.0
 70
     8
  0
VERTEX
  5
85B
330
845
100
AcDbEntity
  8
0
 62
     3
100
AcDbVertex
100
AcDb2dVertex
 10
11.32167035273161
 20
10.45429962591966
 30
0.0
 70
     8
  0
VERTEX
  5
85C
330
845
100
AcDbEntity
  8
0
 62
     3
100
AcDbVertex
100
AcDb2dVertex
 10
11.33891415615147
 20
10.43990613384236
 30
0.0
 70
     8
  0
VERTEX
  5
85D
330
845
100
AcDbEntity
  8
0
 62
     3
100
AcDbVertex
100
AcDb2dVertex
 10
11.35633110477962
 20
10.42622252188616
 30
0.0
 70
     8
  0
VERTEX
  5
85E
330
845
100
AcDbEntity
  8
0
 62
     3
100
AcDbVertex
100
AcDb2dVertex
 10
11.37374472677274
 20
10.41328589875066
 30
0.0
 70
     8
  0
VERTEX
  5
85F
330
845
100
AcDbEntity
  8
0
 62
     3
100
AcDbVertex
100
AcDb2dVertex
 10
11.39097855028748
 20
10.4011333731354
 30
0.0
 70
     8
  0
VERTEX
  5
860
330
845
100
AcDbEntity
  8
0
 62
     3
100
AcDbVertex
100
AcDb2dVertex
 10
11.40788349870342
 20
10.38977580263047
 30
0.0
 70
     8
  0
VERTEX
  5
861
330
845
100
AcDbEntity
  8
0
 62
     3
100
AcDbVertex
100
AcDb2dVertex
 10
11.42442007629191
 20
10.37911904038818
 30
0.0
 70
     8
  0
VERTEX
  5
862
330
845
100
AcDbEntity
  8
0
 62
     3
100
AcDbVertex
100
AcDb2dVertex
 10
11.44057618254714
 20
10.36904268845132
 30
0.0
 70
     8
  0
VERTEX
  5
863
330
845
100
AcDbEntity
  8
0
 62
     3
100
AcDbVertex
100
AcDb2dVertex
 10
11.45633971696335
 20
10.35942634886274
 30
0.0
 70
     8
  0
VERTEX
  5
864
330
845
100
AcDbEntity
  8
0
 62
     3
100
AcDbVertex
100
AcDb2dVertex
 10
11.47169857903483
 20
10.35014962366526
 30
0.0
 70
     8
  0
VERTEX
  5
865
330
845
100
AcDbEntity
  8
0
 62
     3
100
AcDbVertex
100
AcDb2dVertex
 10
11.48664066825574
 20
10.34109211490171
 30
0.0
 70
     8
  0
VERTEX
  5
866
330
845
100
AcDbEntity
  8
0
 62
     3
100
AcDbVertex
100
AcDb2dVertex
 10
11.50115388412038
 20
10.33213342461493
 30
0.0
 70
     8
  0
VERTEX
  5
867
330
845
100
AcDbEntity
  8
0
 62
     3
100
AcDbVertex
100
AcDb2dVertex
 10
11.51522612612293
 20
10.32315315484773
 30
0.0
 70
     8
  0
VERTEX
  5
868
330
845
100
AcDbEntity
  8
0
 62
     3
100
AcDbVertex
100
AcDb2dVertex
 10
11.52884015000509
 20
10.31404867390687
 30
0.0
 70
     8
  0
VERTEX
  5
869
330
845
100
AcDbEntity
  8
0
 62
     3
100
AcDbVertex
100
AcDb2dVertex
 10
11.5419581364982
 20
10.30478841515482
 30
0.0
 70
     8
  0
VERTEX
  5
86A
330
845
100
AcDbEntity
  8
0
 62
     3
100
AcDbVertex
100
AcDb2dVertex
 10
11.55453712258102
 20
10.29535857821802
 30
0.0
 70
     8
  0
VERTEX
  5
86B
330
845
100
AcDbEntity
  8
0
 62
     3
100
AcDbVertex
100
AcDb2dVertex
 10
11.56653414523228
 20
10.28574536272285
 30
0.0
 70
     8
  0
VERTEX
  5
86C
330
845
100
AcDbEntity
  8
0
 62
     3
100
AcDbVertex
100
AcDb2dVertex
 10
11.57790624143078
 20
10.27593496829575
 30
0.0
 70
     8
  0
VERTEX
  5
86D
330
845
100
AcDbEntity
  8
0
 62
     3
100
AcDbVertex
100
AcDb2dVertex
 10
11.58861044815523
 20
10.2659135945631
 30
0.0
 70
     8
  0
VERTEX
  5
86E
330
845
100
AcDbEntity
  8
0
 62
     3
100
AcDbVertex
100
AcDb2dVertex
 10
11.59860380238447
 20
10.25566744115135
 30
0.0
 70
     8
  0
VERTEX
  5
86F
330
845
100
AcDbEntity
  8
0
 62
     3
100
AcDbVertex
100
AcDb2dVertex
 10
11.6078433410972
 20
10.24518270768687
 30
0.0
 70
     8
  0
VERTEX
  5
870
330
845
100
AcDbEntity
  8
0
 62
     3
100
AcDbVertex
100
AcDb2dVertex
 10
11.6162952360753
 20
10.23444073245831
 30
0.0
 70
     8
  0
VERTEX
  5
871
330
845
100
AcDbEntity
  8
0
 62
     3
100
AcDbVertex
100
AcDb2dVertex
 10
11.62396219831313
 20
10.22340340840309
 30
0.0
 70
     8
  0
VERTEX
  5
872
330
845
100
AcDbEntity
  8
0
 62
     3
100
AcDbVertex
100
AcDb2dVertex
 10
11.63085607360812
 20
10.21202776712086
 30
0.0
 70
     8
  0
VERTEX
  5
873
330
845
100
AcDbEntity
  8
0
 62
     3
100
AcDbVertex
100
AcDb2dVertex
 10
11.63698870775775
 20
10.20027084021125
 30
0.0
 70
     8
  0
VERTEX
  5
874
330
845
100
AcDbEntity
  8
0
 62
     3
100
AcDbVertex
100
AcDb2dVertex
 10
11.64237194655942
 20
10.18808965927392
 30
0.0
 70
     8
  0
VERTEX
  5
875
330
845
100
AcDbEntity
  8
0
 62
     3
100
AcDbVertex
100
AcDb2dVertex
 10
11.64701763581061
 20
10.1754412559085
 30
0.0
 70
     8
  0
VERTEX
  5
876
330
845
100
AcDbEntity
  8
0
 62
     3
100
AcDbVertex
100
AcDb2dVertex
 10
11.65093762130877
 20
10.16228266171465
 30
0.0
 70
     8
  0
VERTEX
  5
877
330
845
100
AcDbEntity
  8
0
 62
     3
100
AcDbVertex
100
AcDb2dVertex
 10
11.65414374885133
 20
10.14857090829198
 30
0.0
 70
     8
  0
VERTEX
  5
878
330
845
100
AcDbEntity
  8
0
 62
     3
100
AcDbVertex
100
AcDb2dVertex
 10
11.65664288455738
 20
10.13429689311212
 30
0.0
 70
     8
  0
VERTEX
  5
879
330
845
100
AcDbEntity
  8
0
 62
     3
100
AcDbVertex
100
AcDb2dVertex
 10
11.65842197583228
 20
10.11958697713448
 30
0.0
 70
     8
  0
VERTEX
  5
87A
330
845
100
AcDbEntity
  8
0
 62
     3
100
AcDbVertex
100
AcDb2dVertex
 10
11.65946299040305
 20
10.10460138719042
 30
0.0
 70
     8
  0
VERTEX
  5
87B
330
845
100
AcDbEntity
  8
0
 62
     3
100
AcDbVertex
100
AcDb2dVertex
 10
11.6597478959967
 20
10.08950035011132
 30
0.0
 70
     8
  0
VERTEX
  5
87C
330
845
100
AcDbEntity
  8
0
 62
     3
100
AcDbVertex
100
AcDb2dVertex
 10
11.65925866034027
 20
10.07444409272857
 30
0.0
 70
     8
  0
VERTEX
  5
87D
330
845
100
AcDbEntity
  8
0
 62
     3
100
AcDbVertex
100
AcDb2dVertex
 10
11.65797725116073
 20
10.05959284187351
 30
0.0
 70
     8
  0
VERTEX
  5
87E
330
845
100
AcDbEntity
  8
0
 62
     3
100
AcDbVertex
100
AcDb2dVertex
 10
11.6558856361851
 20
10.04510682437754
 30
0.0
 70
     8
  0
VERTEX
  5
87F
330
845
100
AcDbEntity
  8
0
 62
     3
100
AcDbVertex
100
AcDb2dVertex
 10
11.65296578314041
 20
10.03114626707203
 30
0.0
 70
     8
  0
VERTEX
  5
880
330
845
100
AcDbEntity
  8
0
 62
     3
100
AcDbVertex
100
AcDb2dVertex
 10
11.64921490050855
 20
10.0178377220381
 30
0.0
 70
     8
  0
VERTEX
  5
881
330
845
100
AcDbEntity
  8
0
 62
     3
100
AcDbVertex
100
AcDb2dVertex
 10
11.64469115979088
 20
10.00517304235595
 30
0.0
 70
     8
  0
VERTEX
  5
882
330
845
100
AcDbEntity
  8
0
 62
     3
100
AcDbVertex
100
AcDb2dVertex
 10
11.63946797324371
 20
9.993110406355533
 30
0.0
 70
     8
  0
VERTEX
  5
883
330
845
100
AcDbEntity
  8
0
 62
     3
100
AcDbVertex
100
AcDb2dVertex
 10
11.63361875312335
 20
9.981607992366797
 30
0.0
 70
     8
  0
VERTEX
  5
884
330
845
100
AcDbEntity
  8
0
 62
     3
100
AcDbVertex
100
AcDb2dVertex
 10
11.62721691168604
 20
9.970623978719679
 30
0.0
 70
     8
  0
VERTEX
  5
885
330
845
100
AcDbEntity
  8
0
 62
     3
100
AcDbVertex
100
AcDb2dVertex
 10
11.62033586118809
 20
9.96011654374417
 30
0.0
 70
     8
  0
VERTEX
  5
886
330
845
100
AcDbEntity
  8
0
 62
     3
100
AcDbVertex
100
AcDb2dVertex
 10
11.61304901388581
 20
9.95004386577019
 30
0.0
 70
     8
  0
VERTEX
  5
887
330
845
100
AcDbEntity
  8
0
 62
     3
100
AcDbVertex
100
AcDb2dVertex
 10
11.60542978203543
 20
9.9403641231277
 30
0.0
 70
     8
  0
VERTEX
  5
888
330
845
100
AcDbEntity
  8
0
 62
     3
100
AcDbVertex
100
AcDb2dVertex
 10
11.59753591797465
 20
9.931043920943643
 30
0.0
 70
     8
  0
VERTEX
  5
889
330
845
100
AcDbEntity
  8
0
 62
     3
100
AcDbVertex
100
AcDb2dVertex
 10
11.58936253436658
 20
9.922083571532915
 30
0.0
 70
     8
  0
VERTEX
  5
88A
330
845
100
AcDbEntity
  8
0
 62
     3
100
AcDbVertex
100
AcDb2dVertex
 10
11.58088908395572
 20
9.913491814007393
 30
0.0
 70
     8
  0
VERTEX
  5
88B
330
845
100
AcDbEntity
  8
0
 62
     3
100
AcDbVertex
100
AcDb2dVertex
 10
11.57209501948656
 20
9.905277387478953
 30
0.0
 70
     8
  0
VERTEX
  5
88C
330
845
100
AcDbEntity
  8
0
 62
     3
100
AcDbVertex
100
AcDb2dVertex
 10
11.56295979370364
 20
9.897449031059487
 30
0.0
 70
     8
  0
VERTEX
  5
88D
330
845
100
AcDbEntity
  8
0
 62
     3
100
AcDbVertex
100
AcDb2dVertex
 10
11.55346285935141
 20
9.890015483860871
 30
0.0
 70
     8
  0
VERTEX
  5
88E
330
845
100
AcDbEntity
  8
0
 62
     3
100
AcDbVertex
100
AcDb2dVertex
 10
11.54358366917441
 20
9.882985484994982
 30
0.0
 70
     8
  0
VERTEX
  5
88F
330
845
100
AcDbEntity
  8
0
 62
     3
100
AcDbVertex
100
AcDb2dVertex
 10
11.53330167591713
 20
9.876367773573711
 30
0.0
 70
     8
  0
VERTEX
  5
890
330
845
100
AcDbEntity
  8
0
 62
     3
100
AcDbVertex
100
AcDb2dVertex
 10
11.13433046073547
 20
10.84799932639658
 30
0.0
 70
    16
  0
VERTEX
  5
891
330
845
100
AcDbEntity
  8
0
 62
     3
100
AcDbVertex
100
AcDb2dVertex
 10
11.16616814441812
 20
10.66645829870344
 30
0.0
 70
    16
  0
VERTEX
  5
892
330
845
100
AcDbEntity
  8
0
 62
     3
100
AcDbVertex
100
AcDb2dVertex
 10
11.24669731413533
 20
10.51263729746671
 30
0.0
 70
    16
  0
VERTEX
  5
893
330
845
100
AcDbEntity
  8
0
 62
     3
100
AcDbVertex
100
AcDb2dVertex
 10
11.39477876705245
 20
10.39237384012424
 30
0.0
 70
    16
  0
VERTEX
  5
894
330
845
100
AcDbEntity
  8
0
 62
     3
100
AcDbVertex
100
AcDb2dVertex
 10
11.52005891937972
 20
10.32466758084868
 30
0.0
 70
    16
  0
VERTEX
  5
895
330
845
100
AcDbEntity
  8
0
 62
     3
100
AcDbVertex
100
AcDb2dVertex
 10
11.61634231216632
 20
10.24787476556739
 30
0.0
 70
    16
  0
VERTEX
  5
896
330
845
100
AcDbEntity
  8
0
 62
     3
100
AcDbVertex
100
AcDb2dVertex
 10
11.66163187853817
 20
10.15492960300299
 30
0.0
 70
    16
  0
VERTEX
  5
897
330
845
100
AcDbEntity
  8
0
 62
     3
100
AcDbVertex
100
AcDb2dVertex
 10
11.66199266678913
 20
10.02383227217256
 30
0.0
 70
    16
  0
VERTEX
  5
898
330
845
100
AcDbEntity
  8
0
 62
     3
100
AcDbVertex
100
AcDb2dVertex
 10
11.60819215314785
 20
9.936618910738978
 30
0.0
 70
    16
  0
VERTEX
  5
899
330
845
100
AcDbEntity
  8
0
 62
     3
100
AcDbVertex
100
AcDb2dVertex
 10
11.56127565960403
 20
9.893457519338177
 30
0.0
 70
    16
  0
VERTEX
  5
89A
330
845
100
AcDbEntity
  8
0
 62
     3
100
AcDbVertex
100
AcDb2dVertex
 10
11.53330167591713
 20
9.876367773573711
 30
0.0
 70
    16
  0
SEQEND
  5
89B
330
845
100
AcDbEntity
  8
0
 62
     3
  0
LINE
  5
89C
330
2
100
AcDbEntity
  8
0
 62
     3
100
AcDbLine
 10
11.68749078622917
 20
5.971288012710949
 30
0.0
 11
10.99949078622916
 21
5.971288012710949
 31
0.0
  0
LINE
  5
89D
330
2
100
AcDbEntity
  8
0
 62
     3
100
AcDbLine
 10
10.99949078622916
 20
5.971288012710949
 30
0.0
 11
10.99949078622916
 21
10.97128801271095
 31
0.0
  0
LINE
  5
89E
330
2
100
AcDbEntity
  8
0
 62
     3
100
AcDbLine
 10
10.99949078622916
 20
10.97128801271095
 30
0.0
 11
11.11999782823937
 21
10.97128801271095
 31
0.0
  0
LINE
  5
89F
330
2
100
AcDbEntity
  8
0
 62
     3
100
AcDbLine
 10
11.68749078622917
 20
9.807702082946512
 30
0.0
 11
11.68749078622917
 21
5.971288012710949
 31
0.0
  0
LINE
  5
8A0
330
2
100
AcDbEntity
  8
0
 62
     3
100
AcDbLine
 10
11.53643610208916
 20
9.828340372695031
 30
0.0
 11
11.68749078622917
 21
9.807702082946512
 31
0.0
  0
LINE
  5
8A1
330
2
100
AcDbEntity
  8
0
 62
     3
100
AcDbLine
 10
11.53330167591713
 20
9.876367773573711
 30
0.0
 11
11.53643610208916
 21
9.828340372695031
 31
0.0
  0
TEXT
  5
8A2
330
2
100
AcDbEntity
  8
ALL
 62
     1
100
AcDbText
 10
10.90108193933728
 20
5.34868957732556
 30
0.0
 40
0.125
  1
BWP-1011
 41
1.25
  7
PANROMAN
 72
     1
 11
11.39564416400688
 21
5.34868957732556
 31
0.0
100
AcDbText
  0
TEXT
  5
8A3
330
2
100
AcDbEntity
  8
ALL
 62
     1
100
AcDbText
 10
10.94028702114974
 20
5.20389815313292
 30
0.0
 40
0.075
  1
11/16" x 5"
 41
1.25
  7
TEST
 72
     1
 11
11.39564416400688
 21
5.20389815313292
 31
0.0
100
AcDbText
  0
VIEWPORT
  5
10F
330
7
100
AcDbEntity
 67
     1
  8
0
100
AcDbViewport
 10
7.329044117647058
 20
4.494742024799509
 30
0.0
 40
14.65808823529411
 41
9.0
 68
     1
 69
     1
 12
7.329044117647058
 22
4.494742024799509
 13
0.0
 23
0.0
 14
0.5
 24
0.5
 15
0.5
 25
0.5
 16
0.0
 26
0.0
 36
1.0
 17
0.0
 27
0.0
 37
0.0
 42
50.0
 43
0.0
 44
0.0
 45
9.0
 50
0.0
 51
0.0
 72
   100
 90
    32800
  1

281
     0
 71
     1
 74
     0
110
0.0
120
0.0
130
0.0
111
1.0
121
0.0
131
0.0
112
0.0
122
1.0
132
0.0
 79
     0
146
0.0
  0
ENDSEC
  0
SECTION
  2
OBJECTS
  0
DICTIONARY
  5
1A
330
0
100
AcDbDictionary
281
     1
  3
ACAD_GROUP
350
18
  3
ACAD_IMAGE_DICT
350
1E2
  3
ACAD_IMAGE_VARS
350
1E3
  3
ACAD_LAYOUT
350
16B
  3
ACAD_MLINESTYLE
350
19
  3
ACAD_PLOTSETTINGS
350
16C
  3
ACAD_PLOTSTYLENAME
350
169
  3
AcDbVariableDictionary
350
475
  3
DWGPROPS
350
172
  0
DICTIONARY
  5
18
102
{ACAD_REACTORS
330
1A
102
}
330
1A
100
AcDbDictionary
281
     1
  0
DICTIONARY
  5
1E2
102
{ACAD_REACTORS
330
1A
102
}
330
1A
100
AcDbDictionary
281
     1
  3
darlin
350
1E4
  3
sc
350
3D3
  0
RASTERVARIABLES
  5
1E3
102
{ACAD_REACTORS
330
1A
102
}
330
1A
100
AcDbRasterVariables
 90
        0
 70
     1
 71
     1
 72
     0
  0
DICTIONARY
  5
16B
102
{ACAD_REACTORS
330
1A
102
}
330
1A
100
AcDbDictionary
281
     1
  3
Layout1
350
16E
  3
Model
350
16D
  0
DICTIONARY
  5
19
102
{ACAD_REACTORS
330
1A
102
}
330
1A
100
AcDbDictionary
281
     1
  3
STANDARD
350
1C
  0
DICTIONARY
  5
16C
102
{ACAD_REACTORS
330
1A
102
}
330
1A
100
AcDbDictionary
281
     1
  0
ACDBDICTIONARYWDFLT
  5
169
102
{ACAD_REACTORS
330
1A
102
}
330
1A
100
AcDbDictionary
281
     1
  3
Normal
350
16A
100
AcDbDictionaryWithDefault
340
16A
  0
DICTIONARY
  5
475
102
{ACAD_REACTORS
330
1A
102
}
330
1A
100
AcDbDictionary
281
     1
  3
DIMASSOC
350
476
  0
XRECORD
  5
172
102
{ACAD_REACTORS
330
1A
102
}
330
1A
100
AcDbXrecord
280
     1
  1
DWGPROPS COOKIE
  2

  3

  4

  6

  7

  8
Benson Wood Products
  9

300
=
301
=
302
=
303
=
304
=
305
=
306
=
307
=
308
=
309
=
 40
0.1320853009259259
 41
2451257.51637963
 42
2453236.309322916
  1

 90
        0
  0
IMAGEDEF
  5
1E4
102
{ACAD_REACTORS
330
1E2
102
}
330
1E2
100
AcDbRasterImageDef
 90
        0
  1
C:\AutoCAD 2000i\scans\darlin.bmp
 10
661.0
 20
624.0
 11
0.0846668355628098
 21
0.0846668355628098
280
     1
281
     2
  0
IMAGEDEF
  5
3D3
102
{ACAD_REACTORS
330
1E2
102
}
330
1E2
100
AcDbRasterImageDef
 90
        0
  1
C:\AutoCAD 2000i\scans\sc.bmp
 10
1285.0
 20
1897.0
 11
0.0423334177814049
 21
0.0423334177814049
280
     1
281
     2
  0
LAYOUT
  5
16E
102
{ACAD_REACTORS
330
16B
102
}
330
16B
100
AcDbPlotSettings
  1

  2
\\Bwp-cnc\HP LaserJet 6P
  4

  6

 40
0.0
 41
0.0
 42
0.0
 43
0.0
 44
0.0
 45
0.0
 46
0.0
 47
0.0
 48
0.0
 49
0.0
140
0.0
141
0.0
142
1.0
143
1.0
 70
   688
 72
     0
 73
     0
 74
     5
  7
monochrome.ctb
 75
    16
147
1.0
148
0.0
149
0.0
100
AcDbLayout
  1
Layout1
 70
     1
 71
     1
 10
0.0
 20
0.0
 11
12.0
 21
9.0
 12
0.0
 22
0.0
 32
0.0
 14
1.000000000000000E+20
 24
1.000000000000000E+20
 34
1.000000000000000E+20
 15
-1.000000000000000E+20
 25
-1.000000000000000E+20
 35
-1.000000000000000E+20
146
0.0
 13
0.0
 23
0.0
 33
0.0
 16
1.0
 26
0.0
 36
0.0
 17
0.0
 27
1.0
 37
0.0
 76
     0
330
7
331
10F
  0
LAYOUT
  5
16D
102
{ACAD_REACTORS
330
16B
102
}
330
16B
100
AcDbPlotSettings
  1

  2
PrimoPDF
  4
Letter
  6

 40
3.174999952316284
 41
3.174999952316284
 42
3.175003051757812
 43
3.17498779296875
 44
215.8999938964843
 45
279.3999938964843
 46
83.05799999999999
 47
58.166
 48
10.44984382541287
 49
4.98298266350622
140
12.16646465026633
141
11.16241225522458
142
1.0
143
1.0
 70
 11956
 72
     0
 73
     0
 74
     4
  7
monochrome.ctb
 75
    16
147
1.0
148
-265.426033165487
149
-126.5677596530579
100
AcDbLayout
  1
Model
 70
     1
 71
     0
 10
0.0
 20
0.0
 11
12.0
 21
9.0
 12
0.0
 22
0.0
 32
0.0
 14
0.0
 24
0.0
 34
0.0
 15
0.0
 25
0.0
 35
0.0
146
0.0
 13
0.0
 23
0.0
 33
0.0
 16
1.0
 26
0.0
 36
0.0
 17
0.0
 27
1.0
 37
0.0
 76
     0
330
2
  0
MLINESTYLE
  5
1C
102
{ACAD_REACTORS
330
19
102
}
330
19
100
AcDbMlineStyle
  2
STANDARD
 70
     0
  3

 62
     0
 51
90.0
 52
90.0
 71
     2
 49
0.5
 62
   256
  6
BYLAYER
 49
-0.5
 62
   256
  6
BYLAYER
  0
ACDBPLACEHOLDER
  5
16A
102
{ACAD_REACTORS
330
169
102
}
330
169
  0
DICTIONARYVAR
  5
476
102
{ACAD_REACTORS
330
475
102
}
330
475
100
DictionaryVariables
280
     0
  1
1
  0
ENDSEC
  0
EOF
